  0
SECTION
  2
HEADER
  9
$ACADVER
  1
AC1014
  9
$ACADMAINTVER
 70
     5
  9
$DWGCODEPAGE
  3
ANSI_1252
  9
$INSBASE
 10
0.0
 20
0.0
 30
0.0
  9
$EXTMIN
 10
-29.66468
 20
-8.842307
 30
0.0
  9
$EXTMAX
 10
509.22497
 20
611.546097
 30
0.0
  9
$LIMMIN
 10
0.0
 20
0.0
  9
$LIMMAX
 10
420.0
 20
297.0
  9
$ORTHOMODE
 70
     1
  9
$REGENMODE
 70
     1
  9
$FILLMODE
 70
     1
  9
$QTEXTMODE
 70
     0
  9
$MIRRTEXT
 70
     0
  9
$DRAGMODE
 70
     2
  9
$LTSCALE
 40
1.0
  9
$OSMODE
 70
    39
  9
$ATTMODE
 70
     1
  9
$TEXTSIZE
 40
3.5
  9
$TRACEWID
 40
0.05
  9
$TEXTSTYLE
  7
ROMANS
  9
$CLAYER
  8
0
  9
$CELTYPE
  6
BYLAYER
  9
$CECOLOR
 62
   256
  9
$CELTSCALE
 40
1.0
  9
$DELOBJ
 70
     1
  9
$DISPSILH
 70
     0
  9
$DIMSCALE
 40
1.0
  9
$DIMASZ
 40
2.5
  9
$DIMEXO
 40
1.5
  9
$DIMDLI
 40
5.0
  9
$DIMRND
 40
0.0
  9
$DIMDLE
 40
0.0
  9
$DIMEXE
 40
1.0
  9
$DIMTP
 40
0.0
  9
$DIMTM
 40
0.0
  9
$DIMTXT
 40
3.0
  9
$DIMCEN
 40
0.0
  9
$DIMTSZ
 40
0.0
  9
$DIMTOL
 70
     0
  9
$DIMLIM
 70
     0
  9
$DIMTIH
 70
     0
  9
$DIMTOH
 70
     0
  9
$DIMSE1
 70
     0
  9
$DIMSE2
 70
     0
  9
$DIMTAD
 70
     1
  9
$DIMZIN
 70
     8
  9
$DIMBLK
  1

  9
$DIMASO
 70
     1
  9
$DIMSHO
 70
     1
  9
$DIMPOST
  1

  9
$DIMAPOST
  1

  9
$DIMALT
 70
     0
  9
$DIMALTD
 70
     2
  9
$DIMALTF
 40
25.4
  9
$DIMLFAC
 40
1.0
  9
$DIMTOFL
 70
     1
  9
$DIMTVP
 40
0.0
  9
$DIMTIX
 70
     0
  9
$DIMSOXD
 70
     0
  9
$DIMSAH
 70
     0
  9
$DIMBLK1
  1

  9
$DIMBLK2
  1

  9
$DIMSTYLE
  2
STANDAARD
  9
$DIMCLRD
 70
   256
  9
$DIMCLRE
 70
   256
  9
$DIMCLRT
 70
     2
  9
$DIMTFAC
 40
0.75
  9
$DIMGAP
 40
1.0
  9
$DIMJUST
 70
     0
  9
$DIMSD1
 70
     0
  9
$DIMSD2
 70
     0
  9
$DIMTOLJ
 70
     1
  9
$DIMTZIN
 70
     8
  9
$DIMALTZ
 70
     8
  9
$DIMALTTZ
 70
     8
  9
$DIMFIT
 70
     0
  9
$DIMUPT
 70
     0
  9
$DIMUNIT
 70
     2
  9
$DIMDEC
 70
     2
  9
$DIMTDEC
 70
     2
  9
$DIMALTU
 70
     2
  9
$DIMALTTD
 70
     2
  9
$DIMTXSTY
  7
ROMANS
  9
$DIMAUNIT
 70
     0
  9
$LUNITS
 70
     2
  9
$LUPREC
 70
     2
  9
$SKETCHINC
 40
0.1
  9
$FILLETRAD
 40
10.0
  9
$AUNITS
 70
     0
  9
$AUPREC
 70
     2
  9
$MENU
  1
wtb2
  9
$ELEVATION
 40
0.0
  9
$PELEVATION
 40
0.0
  9
$THICKNESS
 40
0.0
  9
$LIMCHECK
 70
     0
  9
$BLIPMODE
 70
     0
  9
$CHAMFERA
 40
1.6
  9
$CHAMFERB
 40
2.5
  9
$CHAMFERC
 40
0.0
  9
$CHAMFERD
 40
0.0
  9
$SKPOLY
 70
     0
  9
$TDCREATE
 40
2452466.423157523
  9
$TDUPDATE
 40
2452466.678897581
  9
$TDINDWG
 40
0.0033002431
  9
$TDUSRTIMER
 40
0.0033002431
  9
$USRTIMER
 70
     1
  9
$ANGBASE
 50
0.0
  9
$ANGDIR
 70
     0
  9
$PDMODE
 70
     3
  9
$PDSIZE
 40
0.0
  9
$PLINEWID
 40
0.0
  9
$COORDS
 70
     2
  9
$SPLFRAME
 70
     0
  9
$SPLINETYPE
 70
     6
  9
$SPLINESEGS
 70
     8
  9
$ATTDIA
 70
     0
  9
$ATTREQ
 70
     1
  9
$HANDLING
 70
     1
  9
$HANDSEED
  5
1F2C
  9
$SURFTAB1
 70
     6
  9
$SURFTAB2
 70
     6
  9
$SURFTYPE
 70
     6
  9
$SURFU
 70
     6
  9
$SURFV
 70
     6
  9
$UCSNAME
  2

  9
$UCSORG
 10
0.0
 20
0.0
 30
0.0
  9
$UCSXDIR
 10
1.0
 20
0.0
 30
0.0
  9
$UCSYDIR
 10
0.0
 20
1.0
 30
0.0
  9
$PUCSNAME
  2

  9
$PUCSORG
 10
0.0
 20
0.0
 30
0.0
  9
$PUCSXDIR
 10
1.0
 20
0.0
 30
0.0
  9
$PUCSYDIR
 10
0.0
 20
1.0
 30
0.0
  9
$USERI1
 70
     0
  9
$USERI2
 70
     0
  9
$USERI3
 70
     0
  9
$USERI4
 70
     0
  9
$USERI5
 70
     0
  9
$USERR1
 40
0.0
  9
$USERR2
 40
0.0
  9
$USERR3
 40
0.0
  9
$USERR4
 40
0.0
  9
$USERR5
 40
0.0
  9
$WORLDVIEW
 70
     1
  9
$SHADEDGE
 70
     3
  9
$SHADEDIF
 70
    70
  9
$TILEMODE
 70
     1
  9
$MAXACTVP
 70
    16
  9
$PINSBASE
 10
0.0
 20
0.0
 30
0.0
  9
$PLIMCHECK
 70
     0
  9
$PEXTMIN
 10
1.000000E+20
 20
1.000000E+20
 30
1.000000E+20
  9
$PEXTMAX
 10
-1.000000E+20
 20
-1.000000E+20
 30
-1.000000E+20
  9
$PLIMMIN
 10
0.0
 20
0.0
  9
$PLIMMAX
 10
12.0
 20
9.0
  9
$UNITMODE
 70
     0
  9
$VISRETAIN
 70
     0
  9
$PLINEGEN
 70
     0
  9
$PSLTSCALE
 70
     0
  9
$TREEDEPTH
 70
  3020
  9
$PICKSTYLE
 70
     1
  9
$CMLSTYLE
  2
STANDARD
  9
$CMLJUST
 70
     0
  9
$CMLSCALE
 40
1.0
  9
$PROXYGRAPHICS
 70
     1
  9
$MEASUREMENT
 70
     1
  0
ENDSEC
  0
SECTION
  2
CLASSES
  0
CLASS
  1
LWPOLYLINE
  2
AcDbPolyline
  3
"AutoCAD"
 90
        0
280
     0
281
     1
  0
CLASS
  1
AMLOADER
  2
AMLoader
  3
AMAcad
 90
        0
280
     0
281
     0
  0
ENDSEC
  0
SECTION
  2
TABLES
  0
TABLE
  2
VPORT
  5
8
100
AcDbSymbolTable
 70
     2
  0
VPORT
  5
1F2B
100
AcDbSymbolTableRecord
100
AcDbViewportTableRecord
  2
*ACTIVE
 70
     0
 10
0.0
 20
0.0
 11
1.0
 21
1.0
 12
239.780145
 22
301.351895
 13
0.0
 23
0.0
 14
2.5
 24
2.5
 15
5.0
 25
5.0
 16
0.0
 26
0.0
 36
1.0
 17
0.0
 27
0.0
 37
0.0
 40
627.372138
 41
1.650376
 42
50.0
 43
0.0
 44
0.0
 50
0.0
 51
0.0
 71
     0
 72
 20000
 73
     1
 74
     0
 75
     0
 76
     0
 77
     0
 78
     1
  0
ENDTAB
  0
TABLE
  2
LTYPE
  5
5
100
AcDbSymbolTable
 70
     1
  0
LTYPE
  5
12
100
AcDbSymbolTableRecord
100
AcDbLinetypeTableRecord
  2
BYBLOCK
 70
     0
  3

 72
    65
 73
     0
 40
0.0
  0
LTYPE
  5
13
100
AcDbSymbolTableRecord
100
AcDbLinetypeTableRecord
  2
BYLAYER
 70
     0
  3

 72
    65
 73
     0
 40
0.0
  0
LTYPE
  5
14
100
AcDbSymbolTableRecord
100
AcDbLinetypeTableRecord
  2
CONTINUOUS
 70
     0
  3
Solid line
 72
    65
 73
     0
 40
0.0
  0
ENDTAB
  0
TABLE
  2
LAYER
  5
2
100
AcDbSymbolTable
 70
     4
  0
LAYER
  5
F
100
AcDbSymbolTableRecord
100
AcDbLayerTableRecord
  2
0
 70
     0
 62
     8
  6
CONTINUOUS
  0
LAYER
  5
994
100
AcDbSymbolTableRecord
100
AcDbLayerTableRecord
  2
VHH-050
 70
     0
 62
     4
  6
CONTINUOUS
  0
LAYER
  5
995
100
AcDbSymbolTableRecord
100
AcDbLayerTableRecord
  2
VHH-025
 70
     0
 62
     7
  6
CONTINUOUS
  0
LAYER
  5
996
100
AcDbSymbolTableRecord
100
AcDbLayerTableRecord
  2
VHH-070
 70
     0
 62
     4
  6
CONTINUOUS
  0
ENDTAB
  0
TABLE
  2
STYLE
  5
3
100
AcDbSymbolTable
 70
     2
  0
STYLE
  5
10
100
AcDbSymbolTableRecord
100
AcDbTextStyleTableRecord
  2
STANDARD
 70
     0
 40
0.0
 41
1.0
 50
0.0
 71
     0
 42
15.0
  3
txt
  4

  0
STYLE
  5
1C
100
AcDbSymbolTableRecord
100
AcDbTextStyleTableRecord
  2
ROMANS
 70
     0
 40
0.0
 41
1.0
 50
0.0
 71
     0
 42
3.5
  3
romans
  4

  0
ENDTAB
  0
TABLE
  2
VIEW
  5
6
100
AcDbSymbolTable
 70
     2
  0
VIEW
  5
600
100
AcDbSymbolTableRecord
100
AcDbViewTableRecord
  2
VIEW0
 70
     0
 40
297.0
 10
210.0
 20
148.5
 41
420.0
 11
0.0
 21
0.0
 31
1.0
 12
0.0
 22
0.0
 32
0.0
 42
50.0
 43
0.0
 44
0.0
 50
0.0
 71
     0
  0
VIEW
  5
601
100
AcDbSymbolTableRecord
100
AcDbViewTableRecord
  2
VIEW1
 70
     0
 40
297.0
 10
210.0
 20
148.5
 41
420.0
 11
0.0
 21
0.0
 31
1.0
 12
0.0
 22
0.0
 32
0.0
 42
50.0
 43
0.0
 44
0.0
 50
0.0
 71
     0
  0
ENDTAB
  0
TABLE
  2
UCS
  5
7
100
AcDbSymbolTable
 70
     0
  0
ENDTAB
  0
TABLE
  2
APPID
  5
9
100
AcDbSymbolTable
 70
     3
  0
APPID
  5
11
100
AcDbSymbolTableRecord
100
AcDbRegAppTableRecord
  2
ACAD
 70
     0
  0
APPID
  5
37E
100
AcDbSymbolTableRecord
100
AcDbRegAppTableRecord
  2
ADMEPROFILELINK
 70
     0
  0
APPID
  5
974
100
AcDbSymbolTableRecord
100
AcDbRegAppTableRecord
  2
AMACAD
 70
     0
  0
ENDTAB
  0
TABLE
  2
DIMSTYLE
  5
A
100
AcDbSymbolTable
 70
     2
  0
DIMSTYLE
105
4E
100
AcDbSymbolTableRecord
100
AcDbDimStyleTableRecord
  2
STANDARD
 70
     0
  3

  4

  5

  6

  7

 40
1.0
 41
2.2
 42
1.5
 43
7.0
 44
1.2
 45
0.0
 46
0.0
 47
0.0
 48
0.0
140
2.5
141
-3.0
142
0.0
143
25.4
144
1.0
145
0.0
146
1.0
147
0.5
 71
     0
 72
     0
 73
     0
 74
     0
 75
     0
 76
     0
 77
     1
 78
     8
170
     0
171
     2
172
     1
173
     0
174
     0
175
     0
176
   256
177
   256
178
     2
270
     2
271
     4
272
     4
273
     2
274
     2
340
10
275
     0
280
     0
281
     0
282
     0
283
     1
284
     0
285
     0
286
     0
287
     3
288
     0
  0
DIMSTYLE
105
190
100
AcDbSymbolTableRecord
100
AcDbDimStyleTableRecord
  2
STANDAARD
 70
     0
  3

  4

  5

  6

  7

 40
1.0
 41
2.5
 42
1.5
 43
5.0
 44
1.0
 45
0.0
 46
0.0
 47
0.0
 48
0.0
140
3.0
141
0.0
142
0.0
143
25.4
144
1.0
145
0.0
146
0.75
147
1.0
 71
     0
 72
     0
 73
     0
 74
     0
 75
     0
 76
     0
 77
     1
 78
     8
170
     0
171
     2
172
     1
173
     0
174
     0
175
     0
176
   256
177
   256
178
     2
270
     2
271
     2
272
     2
273
     2
274
     2
340
1C
275
     0
280
     0
281
     0
282
     0
283
     1
284
     8
285
     8
286
     8
287
     0
288
     0
  0
ENDTAB
  0
TABLE
  2
BLOCK_RECORD
  5
1
100
AcDbSymbolTable
 70
     4
  0
BLOCK_RECORD
  5
18
100
AcDbSymbolTableRecord
100
AcDbBlockTableRecord
  2
*MODEL_SPACE
  0
BLOCK_RECORD
  5
15
100
AcDbSymbolTableRecord
100
AcDbBlockTableRecord
  2
*PAPER_SPACE
  0
BLOCK_RECORD
  5
1B2
100
AcDbSymbolTableRecord
100
AcDbBlockTableRecord
  2
TEK_INFO
  0
BLOCK_RECORD
  5
985
100
AcDbSymbolTableRecord
100
AcDbBlockTableRecord
  2
A$C7A7B4A19
  0
BLOCK_RECORD
  5
98A
100
AcDbSymbolTableRecord
100
AcDbBlockTableRecord
  2
A$C605007EB
  0
BLOCK_RECORD
  5
98F
100
AcDbSymbolTableRecord
100
AcDbBlockTableRecord
  2
A$C32063EEB
  0
ENDTAB
  0
ENDSEC
  0
SECTION
  2
BLOCKS
  0
BLOCK
  5
46
100
AcDbEntity
  8
0
100
AcDbBlockBegin
  2
*MODEL_SPACE
 70
     0
 10
0.0
 20
0.0
 30
0.0
  3
*MODEL_SPACE
  1

  0
ENDBLK
  5
47
100
AcDbEntity
  8
0
100
AcDbBlockEnd
  0
BLOCK
  5
44
100
AcDbEntity
 67
     1
  8
0
100
AcDbBlockBegin
  2
*PAPER_SPACE
 70
     0
 10
0.0
 20
0.0
 30
0.0
  3
*PAPER_SPACE
  1

  0
ENDBLK
  5
45
100
AcDbEntity
 67
     1
  8
0
100
AcDbBlockEnd
  0
BLOCK
  5
1B9
100
AcDbEntity
  8
0
100
AcDbBlockBegin
  2
TEK_INFO
 70
     2
 10
0.0
 20
0.0
 30
0.0
  3
TEK_INFO
  1

  0
ATTDEF
  5
276
100
AcDbEntity
  8
0
100
AcDbText
 10
15.0
 20
31.5
 30
0.0
 40
2.5
  1
A3
  7
ROMANS
100
AcDbAttributeDefinition
  3

  2
FORMAAT
 70
     9
  0
ATTDEF
  5
277
100
AcDbEntity
  8
0
100
AcDbText
 10
15.0
 20
27.5
 30
0.0
 40
2.5
  1
hor
  7
ROMANS
100
AcDbAttributeDefinition
  3

  2
POSITIE
 70
     9
  0
ATTDEF
  5
278
100
AcDbEntity
  8
0
100
AcDbText
 10
15.0
 20
23.5
 30
0.0
 40
2.5
  1
1
  7
ROMANS
100
AcDbAttributeDefinition
  3

  2
AANTAL
 70
     9
  0
ATTDEF
  5
279
100
AcDbEntity
  8
0
100
AcDbText
 10
15.0
 20
19.5
 30
0.0
 40
2.5
  1
1
  7
ROMANS
100
AcDbAttributeDefinition
  3

  2
TEKSCHAAL
 70
     9
  0
ATTDEF
  5
27A
100
AcDbEntity
  8
0
100
AcDbText
 10
15.0
 20
15.5
 30
0.0
 40
2.5
  1
1
  7
ROMANS
100
AcDbAttributeDefinition
  3

  2
SNAPSCHAAL
 70
     9
  0
ATTDEF
  5
27B
100
AcDbEntity
  8
0
100
AcDbText
 10
15.0
 20
11.5
 30
0.0
 40
2.5
  1
1
  7
ROMANS
100
AcDbAttributeDefinition
  3

  2
BLADAANTAL
 70
     9
  0
ENDBLK
  5
1BA
100
AcDbEntity
  8
0
100
AcDbBlockEnd
  0
BLOCK
  5
988
100
AcDbEntity
  8
0
100
AcDbBlockBegin
  2
A$C7A7B4A19
 70
     0
 10
0.0
 20
0.0
 30
0.0
  3
A$C7A7B4A19
  1

  0
LINE
  5
986
100
AcDbEntity
  8
VHH-050
100
AcDbLine
 10
0.000002
 20
17.677669
 30
0.0
 11
35.355341
 21
17.677669
 31
0.0
  0
LINE
  5
987
100
AcDbEntity
  8
VHH-050
100
AcDbLine
 10
17.677671
 20
-0.000001
 30
0.0
 11
17.677671
 21
35.355338
 31
0.0
  0
ENDBLK
  5
989
100
AcDbEntity
  8
0
100
AcDbBlockEnd
  0
BLOCK
  5
98D
100
AcDbEntity
  8
0
100
AcDbBlockBegin
  2
A$C605007EB
 70
     0
 10
0.0
 20
0.0
 30
0.0
  3
A$C605007EB
  1

  0
LINE
  5
98B
100
AcDbEntity
  8
VHH-050
100
AcDbLine
 10
0.000002
 20
25.000002
 30
0.0
 11
25.000002
 21
0.000002
 31
0.0
  0
LINE
  5
98C
100
AcDbEntity
  8
VHH-050
100
AcDbLine
 10
0.000002
 20
0.000002
 30
0.0
 11
25.000002
 21
25.000002
 31
0.0
  0
ENDBLK
  5
98E
100
AcDbEntity
  8
0
100
AcDbBlockEnd
  0
BLOCK
  5
992
100
AcDbEntity
  8
0
100
AcDbBlockBegin
  2
A$C32063EEB
 70
     0
 10
0.0
 20
0.0
 30
0.0
  3
A$C32063EEB
  1

  0
CIRCLE
  5
990
100
AcDbEntity
  8
VHH-050
100
AcDbCircle
 10
8.838839
 20
8.838837
 30
0.0
 40
1.838835
  0
CIRCLE
  5
991
100
AcDbEntity
  8
VHH-050
100
AcDbCircle
 10
8.838839
 20
8.838837
 30
0.0
 40
8.838835
  0
ENDBLK
  5
993
100
AcDbEntity
  8
0
100
AcDbBlockEnd
  0
ENDSEC
  0
SECTION
  2
ENTITIES
  0
INSERT
  5
27C
100
AcDbEntity
  8
0
100
AcDbBlockReference
 66
     1
  2
TEK_INFO
 10
0.0
 20
0.0
 30
0.0
  0
ATTRIB
  5
27D
100
AcDbEntity
  8
0
100
AcDbText
 10
15.0
 20
31.5
 30
0.0
 40
2.5
  1
A3
  7
ROMANS
100
AcDbAttribute
  2
FORMAAT
 70
     9
  0
ATTRIB
  5
27E
100
AcDbEntity
  8
0
100
AcDbText
 10
15.0
 20
27.5
 30
0.0
 40
2.5
  1
hor
  7
ROMANS
100
AcDbAttribute
  2
POSITIE
 70
     9
  0
ATTRIB
  5
27F
100
AcDbEntity
  8
0
100
AcDbText
 10
15.0
 20
23.5
 30
0.0
 40
2.5
  1
1
  7
ROMANS
100
AcDbAttribute
  2
AANTAL
 70
     9
  0
ATTRIB
  5
280
100
AcDbEntity
  8
0
100
AcDbText
 10
15.0
 20
19.5
 30
0.0
 40
2.5
  1
1
  7
ROMANS
100
AcDbAttribute
  2
TEKSCHAAL
 70
     9
  0
ATTRIB
  5
281
100
AcDbEntity
  8
0
100
AcDbText
 10
15.0
 20
15.5
 30
0.0
 40
2.5
  1
1
  7
ROMANS
100
AcDbAttribute
  2
SNAPSCHAAL
 70
     9
  0
ATTRIB
  5
282
100
AcDbEntity
  8
0
100
AcDbText
 10
15.0
 20
11.5
 30
0.0
 40
2.5
  1
1
  7
ROMANS
100
AcDbAttribute
  2
BLADAANTAL
 70
     9
  0
SEQEND
  5
283
100
AcDbEntity
  8
0
  0
LINE
  5
1485
100
AcDbEntity
  8
VHH-025
100
AcDbLine
 10
442.26617
 20
437.488448
 30
0.0
 11
442.26617
 21
477.359333
 31
0.0
  0
ARC
  5
1486
100
AcDbEntity
  8
VHH-025
100
AcDbCircle
 10
412.332911
 20
457.42389
 30
0.0
 40
36.0
100
AcDbArc
 50
326.518915
 51
33.481085
  0
LINE
  5
1487
100
AcDbEntity
  8
VHH-025
100
AcDbLine
 10
440.26617
 20
435.688237
 30
0.0
 11
440.26617
 21
479.159543
 31
0.0
  0
LWPOLYLINE
  5
148D
100
AcDbEntity
  8
VHH-025
100
AcDbPolyline
 90
       32
 70
     0
 43
0.0
 10
289.180838
 20
435.623409
 10
289.199431
 20
435.666785
 10
289.557787
 20
436.43725
 10
290.751653
 20
438.823938
 10
292.259225
 20
441.78941
 10
293.688426
 20
444.664272
 10
294.268388
 20
445.887147
 10
294.837587
 20
447.097435
 10
295.995837
 20
449.568081
 10
297.173452
 20
452.094586
 10
298.365066
 20
454.670538
 10
299.567919
 20
457.295212
 10
300.778873
 20
459.967307
 10
301.991734
 20
462.679016
 10
303.197485
 20
465.416121
 10
304.387194
 20
468.164184
 10
305.554814
 20
470.915056
 10
306.697207
 20
473.667528
 10
307.811432
 20
476.421462
 10
308.891949
 20
479.1709
 10
309.930387
 20
481.902648
 10
310.917971
 20
484.601627
 10
311.848161
 20
487.257903
 10
312.717
 20
489.868809
 10
313.521009
 20
492.434266
 10
314.254864
 20
494.949855
 10
314.911072
 20
497.404136
 10
315.481757
 20
499.782565
 10
315.960544
 20
502.074085
 10
316.34267
 20
504.274144
 10
316.623451
 20
506.381559
 10
316.771398
 20
508.09641
  0
LWPOLYLINE
  5
148E
100
AcDbEntity
  8
VHH-025
100
AcDbPolyline
 90
       42
 70
     0
 43
0.0
 10
280.118559
 20
435.623409
 10
280.133051
 20
435.666791
 10
280.412389
 20
436.437269
 10
281.343586
 20
438.823999
 10
282.520922
 20
441.78951
 10
283.639791
 20
444.664385
 10
284.095705
 20
445.887262
 10
284.545059
 20
447.09756
 10
284.869785
 20
447.970629
 10
285.464785
 20
449.568225
 10
285.866335
 20
450.645626
 10
286.406391
 20
452.094745
 10
286.885379
 20
453.380975
 10
287.365021
 20
454.670707
 10
287.920927
 20
456.168711
 10
288.33795
 20
457.295387
 10
288.969447
 20
459.007461
 10
289.3222
 20
459.967486
 10
290.31233
 20
462.679196
 10
291.30057
 20
465.416298
 10
292.279182
 20
468.164356
 10
293.242781
 20
470.915221
 10
294.188397
 20
473.667685
 10
295.113253
 20
476.421608
 10
296.012428
 20
479.171034
 10
296.878641
 20
481.902769
 10
297.70425
 20
484.601735
 10
298.483473
 20
487.257997
 10
298.752348
 20
488.204708
 10
299.21269
 20
489.868889
 10
299.512036
 20
490.984927
 10
299.888699
 20
492.434333
 10
300.205842
 20
493.700915
 10
300.506758
 20
494.949908
 10
300.829385
 20
496.3517
 10
301.060295
 20
497.404177
 10
301.376544
 20
498.931318
 10
301.542403
 20
499.782595
 10
301.947442
 20
502.074105
 10
302.271133
 20
504.274156
 10
302.509271
 20
506.381565
 10
302.634894
 20
508.09641
  0
ARC
  5
148F
100
AcDbEntity
  8
VHH-025
100
AcDbCircle
 10
293.240778
 20
519.825039
 30
0.0
 40
70.0
100
AcDbArc
 50
285.795744
 51
347.111989
  0
ARC
  5
1490
100
AcDbEntity
  8
VHH-025
100
AcDbCircle
 10
293.240778
 20
519.825039
 30
0.0
 40
68.75
100
AcDbArc
 50
284.445961
 51
347.111989
  0
LWPOLYLINE
  5
1491
100
AcDbEntity
  8
VHH-025
100
AcDbPolyline
 90
        5
 70
     0
 43
0.0
 10
310.703905
 20
453.329798
 10
316.301697
 20
466.258373
 10
320.961588
 20
479.711774
 10
323.088521
 20
487.222416
 10
324.773829
 20
494.40884
  0
SPLINE
  5
1492
100
AcDbEntity
  8
VHH-025
100
AcDbSpline
210
0.0
220
0.0
230
-1.0
 70
     8
 71
     3
 72
    15
 73
    11
 74
     9
 42
0.0000001
 43
0.0000001
 44
0.0000000001
 40
0.0
 40
0.0
 40
0.0
 40
0.0
 40
2.462388634888668
 40
6.998789599405464
 40
11.40244800823267
 40
17.79316737322024
 40
20.98762315733909
 40
25.38980258838059
 40
31.28059065851887
 40
32.51837280800383
 40
32.51837280800383
 40
32.51837280800383
 40
32.51837280800383
 10
367.0443400072053
 20
473.4238904252847
 30
0.0
 10
366.8590342470692
 20
472.622833249074
 30
0.0
 10
366.3323440210116
 20
470.346007181102
 30
0.0
 10
366.2712357842651
 20
466.5197760980293
 30
0.0
 10
366.4512220052196
 20
461.4187324594863
 30
0.0
 10
366.8976131746567
 20
456.7711995965179
 30
0.0
 10
367.5231759193292
 20
452.1506548592567
 30
0.0
 10
368.3197983655168
 20
447.7249185794828
 30
0.0
 10
369.3638452166648
 20
444.0074038633547
 30
0.0
 10
370.2591394642396
 20
441.8061151602127
 30
0.0
 10
370.4145954959603
 20
441.4238904252847
 30
0.0
 11
367.0443400072053
 21
473.4238904252847
 31
0.0
 11
366.5489760436849
 21
471.0118430930638
 31
0.0
 11
366.3098851547929
 21
466.4817471495194
 31
0.0
 11
366.4641297674188
 21
462.0807908919418
 31
0.0
 11
367.0542019629519
 21
455.7173713076235
 31
0.0
 11
367.4884261175011
 21
452.5525652882447
 31
0.0
 11
368.2911452255229
 21
448.2241907923512
 31
0.0
 11
369.955760038034
 21
442.5734880384229
 31
0.0
 11
370.4145954959603
 21
441.4238904252847
 31
0.0
  0
LINE
  5
1493
100
AcDbEntity
  8
VHH-025
100
AcDbLine
 10
407.26617
 20
475.764362
 30
0.0
 11
407.26617
 21
439.083419
 31
0.0
  0
LWPOLYLINE
  5
1494
100
AcDbEntity
  8
VHH-025
100
AcDbPolyline
 90
       42
 70
     0
 43
0.0
 10
356.307526
 20
489.45095
 10
356.313029
 20
489.418153
 10
356.390894
 20
488.950872
 10
356.429588
 20
488.717853
 10
356.448875
 20
488.601498
 10
356.458504
 20
488.54336
 10
356.463315
 20
488.514301
 10
356.468123
 20
488.485248
 10
357.787079
 20
480.169884
 10
358.404677
 20
476.006986
 10
358.70301
 20
473.924281
 10
358.84956
 20
472.88262
 10
358.922181
 20
472.361714
 10
358.958328
 20
472.101242
 10
358.97636
 20
471.971001
 10
358.985366
 20
471.905879
 10
358.989866
 20
471.873318
 10
358.992116
 20
471.857038
 10
358.994365
 20
471.840757
 10
359.491212
 20
468.160226
 10
360.06697
 20
463.715575
 10
360.222632
 20
462.48499
 10
360.242412
 20
462.327808
 10
360.246808
 20
462.292854
 10
360.25046
 20
462.263808
 10
360.257774
 20
462.205615
 10
360.287163
 20
461.97153
 10
360.346579
 20
461.497041
 10
360.592532
 20
459.514836
 10
360.851122
 20
457.397797
 10
360.98488
 20
456.288699
 10
361.052824
 20
455.721503
 10
361.087055
 20
455.434743
 10
361.104235
 20
455.290572
 10
361.112841
 20
455.218289
 10
361.117148
 20
455.182098
 10
361.119303
 20
455.16399
 10
361.121458
 20
455.145874
 10
362.707876
 20
440.996137
 10
364.259301
 20
425.093822
 10
365.698298
 20
407.437359
 10
366.007505
 20
402.588172
  0
LINE
  5
1495
100
AcDbEntity
  8
VHH-025
100
AcDbLine
 10
440.26617
 20
472.140327
 30
0.0
 11
422.26617
 21
471.355661
 31
0.0
  0
LWPOLYLINE
  5
1497
100
AcDbEntity
  8
VHH-025
100
AcDbPolyline
 90
        8
 70
     1
 43
0.0
 10
259.953238
 20
585.49641
 10
1.053223
 20
585.49641
 42
0.414214
 10
0.053223
 20
584.49641
 10
0.053223
 20
58.5
 42
0.414214
 10
1.053223
 20
57.5
 10
259.953238
 20
57.5
 42
0.414214
 10
260.953238
 20
58.5
 10
260.953238
 20
584.49641
 42
0.414214
  0
LWPOLYLINE
  5
1498
100
AcDbEntity
  8
VHH-025
100
AcDbPolyline
 90
        8
 70
     1
 43
0.0
 10
259.953238
 20
585.49641
 10
1.053223
 20
585.49641
 42
0.414214
 10
0.053223
 20
584.49641
 10
0.053223
 20
58.5
 42
0.414214
 10
1.053223
 20
57.5
 10
259.953238
 20
57.5
 42
0.414214
 10
260.953238
 20
58.5
 10
260.953238
 20
584.49641
 42
0.414214
  0
LWPOLYLINE
  5
1499
100
AcDbEntity
  8
VHH-025
100
AcDbPolyline
 90
       10
 70
     0
 43
0.0
 10
317.472241
 20
20.5
 10
331.053223
 20
20.5
 42
0.414214
 10
332.053223
 20
21.5
 10
332.053223
 20
56.5
 42
0.414214
 10
331.053223
 20
57.5
 10
1.053223
 20
57.5
 42
0.414214
 10
0.053223
 20
56.5
 10
0.053223
 20
21.5
 42
0.414214
 10
1.053223
 20
20.5
 10
14.602983
 20
20.5
  0
LWPOLYLINE
  5
149A
100
AcDbEntity
  8
VHH-025
100
AcDbPolyline
 90
        2
 70
     0
 43
0.0
 10
41.441019
 20
20.5
 10
290.634205
 20
20.5
  0
LINE
  5
149B
100
AcDbEntity
  8
VHH-025
100
AcDbLine
 10
41.501685
 20
19.9
 30
0.0
 11
290.573539
 21
19.9
 31
0.0
  0
INSERT
  5
149C
100
AcDbEntity
  8
VHH-050
100
AcDbBlockReference
  2
A$C7A7B4A19
 10
5.730895
 20
21.322331
 30
0.0
 41
-1.0
  0
LINE
  5
149D
100
AcDbEntity
  8
VHH-025
100
AcDbLine
 10
-11.946777
 20
47.5
 30
0.0
 11
-11.946777
 21
30.5
 31
0.0
  0
SPLINE
  5
149E
100
AcDbEntity
  8
VHH-025
100
AcDbSpline
210
0.0
220
0.0
230
-1.0
 70
     8
 71
     3
 72
    11
 73
     7
 74
     5
 42
0.0000001
 43
0.0000001
 44
0.0000000001
 40
0.0
 40
0.0
 40
0.0
 40
0.0
 40
13.28372143960343
 40
19.56485780860593
 40
27.05038666949639
 40
37.96817867755265
 40
37.96817867755265
 40
37.96817867755265
 40
37.96817867755265
 10
13.02199904926783
 20
0.999976177929966
 30
0.0
 10
13.32467272786056
 20
5.41782431368271
 30
0.0
 10
13.77046403047094
 20
11.92462822318999
 30
0.0
 10
14.62859480281398
 20
20.90095497708298
 30
0.0
 10
15.52015953922262
 20
29.08104528840219
 30
0.0
 10
16.31129850883101
 20
35.16444930666227
 30
0.0
 10
16.78064264411841
 20
38.77343598060588
 30
0.0
 11
13.02199904926783
 21
0.999976177929966
 31
0.0
 11
14.01063374295517
 21
14.24685719677427
 31
0.0
 11
14.60298273098851
 21
20.50000014751367
 31
0.0
 11
15.4171101481279
 21
27.94112498693721
 31
0.0
 11
16.78064264411841
 21
38.77343598060588
 31
0.0
  0
SPLINE
  5
149F
100
AcDbEntity
  8
VHH-025
100
AcDbSpline
210
0.0
220
0.0
230
1.0
 70
     8
 71
     3
 72
    11
 73
     7
 74
     5
 42
0.0000001
 43
0.0000001
 44
0.0000000001
 40
0.0
 40
0.0
 40
0.0
 40
0.0
 40
13.28372143960343
 40
19.56485780860576
 40
27.05038666949642
 40
37.96817867755268
 40
37.96817867755268
 40
37.96817867755268
 40
37.96817867755268
 10
43.02200221707244
 20
0.999976177929966
 30
0.0
 10
42.71932853847904
 20
5.417824313682644
 30
0.0
 10
42.27353723586769
 20
11.92462822318977
 30
0.0
 10
41.4154064635293
 20
20.90095497708323
 30
0.0
 10
40.52384172711642
 20
29.08104528840199
 30
0.0
 10
39.7327027575088
 20
35.16444930666222
 30
0.0
 10
39.26335862222186
 20
38.77343598060588
 30
0.0
 11
43.02200221707244
 21
0.999976177929966
 31
0.0
 11
42.03336752338509
 21
14.24685719677427
 31
0.0
 11
41.44101853535357
 21
20.50000014751367
 31
0.0
 11
40.62689111821237
 21
27.94112498693721
 31
0.0
 11
39.26335862222186
 21
38.77343598060588
 31
0.0
  0
LINE
  5
14A0
100
AcDbEntity
  8
VHH-025
100
AcDbLine
 10
-7.146777
 20
52.0
 30
0.0
 11
-7.146777
 21
26.0
 31
0.0
  0
LINE
  5
14A1
100
AcDbEntity
  8
VHH-025
100
AcDbLine
 10
-7.146777
 20
30.5
 30
0.0
 11
-11.946777
 21
30.5
 31
0.0
  0
LINE
  5
14A2
100
AcDbEntity
  8
VHH-025
100
AcDbLine
 10
41.322001
 20
0.0
 30
0.0
 11
14.722001
 21
0.0
 31
0.0
  0
LINE
  5
14A3
100
AcDbEntity
  8
VHH-025
100
AcDbLine
 10
43.022002
 20
0.999976
 30
0.0
 11
13.021999
 21
0.999976
 31
0.0
  0
LINE
  5
14A4
100
AcDbEntity
  8
VHH-025
100
AcDbLine
 10
41.322001
 20
1.0
 30
0.0
 11
41.322001
 21
0.0
 31
0.0
  0
LINE
  5
14A5
100
AcDbEntity
  8
VHH-025
100
AcDbLine
 10
5.053223
 20
20.5
 30
0.0
 11
5.053223
 21
19.9
 31
0.0
  0
LINE
  5
14A6
100
AcDbEntity
  8
VHH-025
100
AcDbLine
 10
0.053223
 20
26.0
 30
0.0
 11
-7.146777
 21
26.0
 31
0.0
  0
LINE
  5
14A7
100
AcDbEntity
  8
VHH-025
100
AcDbLine
 10
14.722001
 20
1.0
 30
0.0
 11
14.722001
 21
0.0
 31
0.0
  0
LINE
  5
14A8
100
AcDbEntity
  8
VHH-025
100
AcDbLine
 10
5.053223
 20
19.9
 30
0.0
 11
14.542316
 21
19.9
 31
0.0
  0
INSERT
  5
14A9
100
AcDbEntity
  8
VHH-050
100
AcDbBlockReference
  2
A$C32063EEB
 10
8.838839
 20
-8.838837
 30
0.0
 41
-1.0
  0
INSERT
  5
14AA
100
AcDbEntity
  8
VHH-050
100
AcDbBlockReference
  2
A$C605007EB
 10
54.034688
 20
7.399998
 30
0.0
 41
-1.0
  0
LINE
  5
14AB
100
AcDbEntity
  8
VHH-025
100
AcDbLine
 10
-7.146777
 20
47.5
 30
0.0
 11
-11.946777
 21
47.5
 31
0.0
  0
LINE
  5
14AC
100
AcDbEntity
  8
VHH-025
100
AcDbLine
 10
-7.146777
 20
39.0
 30
0.0
 11
-11.946777
 21
39.0
 31
0.0
  0
LINE
  5
14AD
100
AcDbEntity
  8
VHH-025
100
AcDbLine
 10
0.053223
 20
52.0
 30
0.0
 11
-7.146777
 21
52.0
 31
0.0
  0
SPLINE
  5
14AE
100
AcDbEntity
  8
VHH-025
100
AcDbSpline
210
0.0
220
0.0
230
-1.0
 70
     8
 71
     3
 72
    12
 73
     8
 74
     6
 42
0.0000001
 43
0.0000001
 44
0.0000000001
 40
0.0
 40
0.0
 40
0.0
 40
0.0
 40
0.7759383456500434
 40
1.313673913555993
 40
1.814968045951748
 40
2.371579175917004
 40
2.926100784724154
 40
2.926100784724154
 40
2.926100784724154
 40
2.926100784724154
 10
16.78064264411841
 20
38.77343598060588
 30
0.0
 10
16.83206682881115
 20
39.02823095789993
 30
0.0
 10
16.91912865574038
 20
39.45960223482256
 30
0.0
 10
17.23211490033747
 20
39.99438635651778
 30
0.0
 10
17.68083092734044
 20
40.31079526506682
 30
0.0
 10
18.21315783036115
 20
40.42296048280289
 30
0.0
 10
18.57919049777293
 20
40.47435237564147
 30
0.0
 10
18.76186266332661
 20
40.49999999999999
 30
0.0
 11
16.78064264411841
 21
38.77343598060588
 31
0.0
 11
16.98357651065089
 21
39.52236732730216
 31
0.0
 11
17.2686685693443
 21
39.97830817769954
 31
0.0
 11
17.67689707887257
 21
40.26924681587388
 31
0.0
 11
18.21364769056162
 21
40.41660600578961
 31
0.0
 11
18.76186266332661
 21
40.49999999999999
 31
0.0
  0
SPLINE
  5
14AF
100
AcDbEntity
  8
VHH-025
100
AcDbSpline
210
0.0
220
0.0
230
-1.0
 70
     8
 71
     3
 72
    12
 73
     8
 74
     6
 42
0.0000001
 43
0.0000001
 44
0.0000000001
 40
0.0
 40
0.0
 40
0.0
 40
0.0
 40
0.7759383456500434
 40
1.313673913555993
 40
1.814968045951748
 40
2.371579175917004
 40
2.926100784724154
 40
2.926100784724154
 40
2.926100784724154
 40
2.926100784724154
 10
39.26335862222186
 20
38.77343598060588
 30
0.0
 10
39.21193443752912
 20
39.02823095789993
 30
0.0
 10
39.12487261059988
 20
39.45960223482256
 30
0.0
 10
38.81188636600281
 20
39.99438635651778
 30
0.0
 10
38.36317033899982
 20
40.31079526506682
 30
0.0
 10
37.83084343597912
 20
40.42296048280289
 30
0.0
 10
37.46481076856734
 20
40.47435237564147
 30
0.0
 10
37.28213860301366
 20
40.49999999999999
 30
0.0
 11
39.26335862222186
 21
38.77343598060588
 31
0.0
 11
39.06042475568938
 21
39.52236732730216
 31
0.0
 11
38.77533269699597
 21
39.97830817769954
 31
0.0
 11
38.3671041874677
 21
40.26924681587388
 31
0.0
 11
37.83035357577864
 21
40.41660600578961
 31
0.0
 11
37.28213860301366
 21
40.49999999999999
 31
0.0
  0
ARC
  5
14B0
100
AcDbEntity
  8
VHH-025
100
AcDbCircle
 10
27.528829
 20
-76.966469
 30
0.0
 40
117.793171
100
AcDbArc
 50
89.760116
 51
94.268287
  0
ARC
  5
14B1
100
AcDbEntity
  8
VHH-025
100
AcDbCircle
 10
28.515172
 20
-76.966469
 30
0.0
 40
117.793171
100
AcDbArc
 50
85.731713
 51
90.239884
  0
SPLINE
  5
14B5
100
AcDbEntity
  8
VHH-025
100
AcDbSpline
210
0.0
220
0.0
230
1.0
 70
     8
 71
     3
 72
    11
 73
     7
 74
     5
 42
0.0000001
 43
0.0000001
 44
0.0000000001
 40
0.0
 40
0.0
 40
0.0
 40
0.0
 40
13.28372143960343
 40
19.56485780860576
 40
27.05038666949622
 40
37.96817867755248
 40
37.96817867755248
 40
37.96817867755248
 40
37.96817867755248
 10
319.0532248773761
 20
0.999976177929966
 30
0.0
 10
318.7505511987827
 20
5.417824313682658
 30
0.0
 10
318.3047598961716
 20
11.9246282231898
 30
0.0
 10
317.4466291238325
 20
20.9009549770831
 30
0.0
 10
316.5550643874228
 20
29.08104528840216
 30
0.0
 10
315.7639254178146
 20
35.16444930666226
 30
0.0
 10
315.2945812825273
 20
38.77343598060588
 30
0.0
 11
319.0532248773761
 21
0.999976177929966
 31
0.0
 11
318.0645901836888
 21
14.24685719677427
 31
0.0
 11
317.4722411956572
 21
20.50000014751367
 31
0.0
 11
316.6581137785178
 21
27.94112498693721
 31
0.0
 11
315.2945812825273
 21
38.77343598060588
 31
0.0
  0
SPLINE
  5
14B6
100
AcDbEntity
  8
VHH-025
100
AcDbSpline
210
0.0
220
0.0
230
-1.0
 70
     8
 71
     3
 72
    11
 73
     7
 74
     5
 42
0.0000001
 43
0.0000001
 44
0.0000000001
 40
0.0
 40
0.0
 40
0.0
 40
0.0
 40
13.28372143960343
 40
19.56485780860576
 40
27.05038666949622
 40
37.96817867755271
 40
37.96817867755271
 40
37.96817867755271
 40
37.96817867755271
 10
289.0532217095733
 20
0.999976177929966
 30
0.0
 10
289.3558953881666
 20
5.41782431368266
 30
0.0
 10
289.8016866907778
 20
11.92462822318981
 30
0.0
 10
290.659817463117
 20
20.90095497708309
 30
0.0
 10
291.5513821995263
 20
29.08104528840228
 30
0.0
 10
292.3425211691358
 20
35.16444930666227
 30
0.0
 10
292.8118653044239
 20
38.77343598060588
 30
0.0
 11
289.0532217095733
 21
0.999976177929966
 31
0.0
 11
290.0418564032607
 21
14.24685719677427
 31
0.0
 11
290.6342053912922
 21
20.50000014751367
 31
0.0
 11
291.4483328084315
 21
27.94112498693721
 31
0.0
 11
292.8118653044239
 21
38.77343598060588
 31
0.0
  0
LINE
  5
14B7
100
AcDbEntity
  8
VHH-025
100
AcDbLine
 10
332.053223
 20
20.5
 30
0.0
 11
332.322011
 21
57.5
 31
0.0
  0
LWPOLYLINE
  5
14B8
100
AcDbEntity
  8
VHH-025
100
AcDbPolyline
 90
        5
 70
     0
 43
0.0
 10
332.322011
 20
57.5
 10
493.42908
 20
57.499948
 42
-0.352487
 10
497.336777
 20
54.354286
 10
503.709693
 20
25.2049
 10
509.220228
 20
0.0
  0
LWPOLYLINE
  5
14B9
100
AcDbEntity
  8
VHH-025
100
AcDbPolyline
 90
        4
 70
     0
 43
0.0
 10
491.565122
 20
0.0
 10
479.162747
 20
54.935396
 42
0.350577
 10
477.208738
 20
56.508727
 10
332.367467
 20
56.508727
  0
LWPOLYLINE
  5
14BA
100
AcDbEntity
  8
VHH-025
100
AcDbPolyline
 90
        4
 70
     0
 43
0.0
 10
332.053223
 20
20.5
 10
451.521261
 20
20.5
 42
-0.354119
 10
456.901073
 20
16.143514
 10
460.332483
 20
0.0
  0
LINE
  5
14BB
100
AcDbEntity
  8
VHH-025
100
AcDbLine
 10
356.979994
 20
4.5
 30
0.0
 11
454.756378
 21
4.5
 31
0.0
  0
LINE
  5
14BC
100
AcDbEntity
  8
VHH-025
100
AcDbLine
 10
457.443867
 20
13.58987
 30
0.0
 11
356.979994
 21
13.58987
 31
0.0
  0
LINE
  5
14BD
100
AcDbEntity
  8
VHH-025
100
AcDbLine
 10
317.532908
 20
19.9
 30
0.0
 11
327.053223
 21
19.9
 31
0.0
  0
LINE
  5
14BE
100
AcDbEntity
  8
VHH-025
100
AcDbLine
 10
319.053225
 20
0.999976
 30
0.0
 11
289.053222
 21
0.999976
 31
0.0
  0
LINE
  5
14BF
100
AcDbEntity
  8
VHH-025
100
AcDbLine
 10
290.753223
 20
1.0
 30
0.0
 11
290.753223
 21
0.0
 31
0.0
  0
LINE
  5
14C0
100
AcDbEntity
  8
VHH-025
100
AcDbLine
 10
317.353223
 20
1.0
 30
0.0
 11
317.353223
 21
0.0
 31
0.0
  0
LINE
  5
14C1
100
AcDbEntity
  8
VHH-025
100
AcDbLine
 10
317.353223
 20
0.0
 30
0.0
 11
290.753223
 21
0.0
 31
0.0
  0
LINE
  5
14C2
100
AcDbEntity
  8
VHH-025
100
AcDbLine
 10
327.053223
 20
20.5
 30
0.0
 11
327.053223
 21
19.9
 31
0.0
  0
LWPOLYLINE
  5
14C3
100
AcDbEntity
  8
VHH-025
100
AcDbPolyline
 90
        2
 70
     0
 43
0.0
 10
346.147109
 20
13.58987
 10
344.928667
 20
20.5
  0
LWPOLYLINE
  5
14C4
100
AcDbEntity
  8
VHH-025
100
AcDbPolyline
 90
        2
 70
     0
 43
0.0
 10
356.979994
 20
13.58987
 10
355.761552
 20
20.5
  0
LINE
  5
14C5
100
AcDbEntity
  8
VHH-025
100
AcDbLine
 10
375.332483
 20
0.0
 30
0.0
 11
359.332483
 21
0.0
 31
0.0
  0
LINE
  5
14C6
100
AcDbEntity
  8
VHH-025
100
AcDbLine
 10
375.332483
 20
0.0
 30
0.0
 11
375.489627
 21
4.5
 31
0.0
  0
ARC
  5
14C7
100
AcDbEntity
  8
VHH-025
100
AcDbCircle
 10
356.979994
 20
15.5
 30
0.0
 40
11.0
100
AcDbArc
 50
190.0
 51
270.0
  0
LINE
  5
14C8
100
AcDbEntity
  8
VHH-025
100
AcDbLine
 10
359.332483
 20
0.0
 30
0.0
 11
359.17534
 21
4.5
 31
0.0
  0
LINE
  5
14CA
100
AcDbEntity
  8
VHH-025
100
AcDbLine
 10
460.332483
 20
0.0
 30
0.0
 11
509.220228
 21
0.0
 31
0.0
  0
LWPOLYLINE
  5
14CB
100
AcDbEntity
  8
VHH-025
100
AcDbPolyline
 90
        2
 70
     0
 43
0.0
 10
459.371193
 20
4.522512
 10
458.692764
 20
4.5
  0
LINE
  5
14CC
100
AcDbEntity
  8
VHH-025
100
AcDbLine
 10
454.756378
 20
4.5
 30
0.0
 11
458.692764
 21
4.5
 31
0.0
  0
ARC
  5
14D1
100
AcDbEntity
  8
VHH-025
100
AcDbCircle
 10
430.322734
 20
260.800004
 30
0.0
 40
2.0
100
AcDbArc
 50
180.0
 51
270.0
  0
ARC
  5
14D2
100
AcDbEntity
  8
VHH-025
100
AcDbCircle
 10
450.980428
 20
261.234548
 30
0.0
 40
25.0
100
AcDbArc
 50
125.807709
 51
155.0
  0
ARC
  5
14D3
100
AcDbEntity
  8
VHH-025
100
AcDbCircle
 10
-62.51076
 20
204.39754
 30
0.0
 40
500.0
100
AcDbArc
 50
10.0
 51
20.0
  0
LINE
  5
14D4
100
AcDbEntity
  8
VHH-025
100
AcDbLine
 10
428.341208
 20
227.453142
 30
0.0
 11
428.139463
 21
223.534903
 31
0.0
  0
LINE
  5
14D5
100
AcDbEntity
  8
VHH-025
100
AcDbLine
 10
428.759178
 20
250.500004
 30
0.0
 11
427.217746
 21
250.500004
 31
0.0
  0
ARC
  5
14D6
100
AcDbEntity
  8
VHH-025
100
AcDbCircle
 10
427.953227
 20
220.500004
 30
0.0
 40
2.0
100
AcDbArc
 50
0.000001
 51
90.000001
  0
LINE
  5
14D7
100
AcDbEntity
  8
VHH-025
100
AcDbLine
 10
429.824327
 20
213.638396
 30
0.0
 11
427.804223
 21
221.177524
 31
0.0
  0
LINE
  5
14D8
100
AcDbEntity
  8
VHH-025
100
AcDbLine
 10
429.86512
 20
243.385705
 30
0.0
 11
386.631894
 21
249.670246
 31
0.0
  0
SPLINE
  5
14D9
100
AcDbEntity
  8
VHH-025
100
AcDbSpline
210
0.0
220
0.0
230
1.0
 70
     8
 71
     3
 72
    15
 73
    11
 74
     9
 42
0.0000001
 43
0.0000001
 44
0.0000000001
 40
0.0
 40
0.0
 40
0.0
 40
0.0
 40
0.1323596920370364
 40
0.2943652284169482
 40
1.223465955565874
 40
2.382258466632486
 40
6.15579808558612
 40
8.743523072128136
 40
10.53077697569728
 40
11.83032934886059
 40
11.83032934886059
 40
11.83032934886059
 40
11.83032934886059
 10
420.0744911020701
 20
250.7196831954588
 30
0.0
 10
420.1166039281162
 20
250.7052851838768
 30
0.0
 10
420.210261985698
 20
250.6732643027244
 30
0.0
 10
420.5231155346842
 20
250.4037409648911
 30
0.0
 10
421.093061850016
 20
249.924025664715
 30
0.0
 10
422.6045422802613
 20
248.6806731189956
 30
0.0
 10
424.6003853861776
 20
247.1620829824498
 30
0.0
 10
426.8539026744178
 20
245.6499416151217
 30
0.0
 10
428.4826809314241
 20
244.6697343940806
 30
0.0
 10
429.4555426884492
 20
244.328089051921
 30
0.0
 10
429.8651196724768
 20
244.1842555957919
 30
0.0
 11
420.0744911020701
 21
250.7196831954588
 31
0.0
 11
420.1971123634502
 21
250.6698523382147
 31
0.0
 11
420.3269034630339
 21
250.5728984095339
 31
0.0
 11
421.0367564284279
 21
249.9734512236118
 31
0.0
 11
421.9323317426042
 21
249.2380976077629
 31
0.0
 11
424.9400691385253
 21
246.9592564520457
 31
0.0
 11
427.0913143340822
 21
245.5210406425903
 31
0.0
 11
428.6517815928782
 21
244.6497092188205
 31
0.0
 11
429.8651196724768
 21
244.1842555957919
 31
0.0
  0
LINE
  5
14DA
100
AcDbEntity
  8
VHH-025
100
AcDbLine
 10
373.56045
 20
226.975078
 30
0.0
 11
429.86512
 21
227.466441
 31
0.0
  0
LINE
  5
14DB
100
AcDbEntity
  8
VHH-025
100
AcDbLine
 10
422.863712
 20
248.500004
 30
0.0
 11
453.953227
 21
248.500004
 31
0.0
  0
LINE
  5
14DC
100
AcDbEntity
  8
VHH-025
100
AcDbLine
 10
422.080817
 20
222.500004
 30
0.0
 11
453.825637
 21
222.500004
 31
0.0
  0
LINE
  5
14DD
100
AcDbEntity
  8
VHH-025
100
AcDbLine
 10
452.869276
 20
258.800004
 30
0.0
 11
423.037177
 21
258.800004
 31
0.0
  0
LINE
  5
14DE
100
AcDbEntity
  8
VHH-025
100
AcDbLine
 10
440.26617
 20
453.430021
 30
0.0
 11
422.26617
 21
453.64297
 31
0.0
  0
ARC
  5
14DF
100
AcDbEntity
  8
VHH-025
100
AcDbCircle
 10
442.915028
 20
594.901963
 30
0.0
 40
160.0
100
AcDbArc
 50
257.183304
 51
268.777049
  0
LINE
  5
14E0
100
AcDbEntity
  8
VHH-025
100
AcDbLine
 10
440.26617
 20
436.151146
 30
0.0
 11
422.26617
 21
437.285387
 31
0.0
  0
LINE
  5
14E1
100
AcDbEntity
  8
VHH-025
100
AcDbLine
 10
440.26617
 20
437.727181
 30
0.0
 11
422.26617
 21
438.77739
 31
0.0
  0
LINE
  5
14E2
100
AcDbEntity
  8
VHH-025
100
AcDbLine
 10
440.26617
 20
439.965514
 30
0.0
 11
422.26617
 21
441.161006
 31
0.0
  0
LINE
  5
14E3
100
AcDbEntity
  8
VHH-025
100
AcDbLine
 10
440.26617
 20
442.702101
 30
0.0
 11
422.26617
 21
443.49212
 31
0.0
  0
LINE
  5
14E4
100
AcDbEntity
  8
VHH-025
100
AcDbLine
 10
440.26617
 20
445.951622
 30
0.0
 11
422.26617
 21
446.563312
 31
0.0
  0
LINE
  5
14E5
100
AcDbEntity
  8
VHH-025
100
AcDbLine
 10
440.26617
 20
449.564518
 30
0.0
 11
422.26617
 21
449.983572
 31
0.0
  0
LINE
  5
14E6
100
AcDbEntity
  8
VHH-025
100
AcDbLine
 10
440.26617
 20
468.896159
 30
0.0
 11
422.26617
 21
468.284469
 31
0.0
  0
LINE
  5
14E7
100
AcDbEntity
  8
VHH-025
100
AcDbLine
 10
440.26617
 20
457.42389
 30
0.0
 11
422.26617
 21
457.42389
 31
0.0
  0
LINE
  5
14E8
100
AcDbEntity
  8
VHH-025
100
AcDbLine
 10
440.26617
 20
461.41776
 30
0.0
 11
422.26617
 21
461.20481
 31
0.0
  0
LINE
  5
14E9
100
AcDbEntity
  8
VHH-025
100
AcDbLine
 10
440.26617
 20
465.283262
 30
0.0
 11
422.26617
 21
464.864209
 31
0.0
  0
LINE
  5
14EA
100
AcDbEntity
  8
VHH-025
100
AcDbLine
 10
422.802746
 20
250.500004
 30
0.0
 11
423.053494
 21
258.050004
 31
0.0
  0
LINE
  5
14EB
100
AcDbEntity
  8
VHH-025
100
AcDbLine
 10
424.570735
 20
250.500004
 30
0.0
 11
424.793343
 21
258.050004
 31
0.0
  0
LINE
  5
14EC
100
AcDbEntity
  8
VHH-025
100
AcDbLine
 10
427.217746
 20
250.500004
 30
0.0
 11
427.398229
 21
258.050004
 31
0.0
  0
LINE
  5
14ED
100
AcDbEntity
  8
VHH-025
100
AcDbLine
 10
421.977701
 20
249.200845
 30
0.0
 11
422.287634
 21
258.076179
 31
0.0
  0
LINE
  5
14EE
100
AcDbEntity
  8
VHH-025
100
AcDbLine
 10
420.074491
 20
250.719683
 30
0.0
 11
394.153223
 21
257.2
 31
0.0
  0
SPLINE
  5
14EF
100
AcDbEntity
  8
VHH-025
100
AcDbSpline
210
0.0
220
0.0
230
1.0
 70
     8
 71
     3
 72
    19
 73
    15
 74
    13
 42
0.0000001
 43
0.0000001
 44
0.0000000001
 40
0.0
 40
0.0
 40
0.0
 40
0.0
 40
26.05508186693619
 40
52.06911740197477
 40
75.47336214907971
 40
108.6629070467092
 40
145.310679172909
 40
186.0115051743791
 40
220.9274686337171
 40
247.7309809828073
 40
280.0139893799226
 40
302.7356214895622
 40
316.294494998832
 40
329.8533685081019
 40
329.8533685081019
 40
329.8533685081019
 40
329.8533685081019
 10
330.292277146842
 20
59.98784349843209
 30
0.0
 10
330.7189908659334
 20
68.67099587955133
 30
0.0
 10
331.5717460731468
 20
86.02362148482638
 30
0.0
 10
336.5957154336102
 20
110.7922439373439
 30
0.0
 10
345.3455267971142
 20
136.9080002573238
 30
0.0
 10
353.4219992697156
 20
166.9618543063151
 30
0.0
 10
359.8623522594575
 20
203.2612030199766
 30
0.0
 10
365.1351547236158
 20
240.3375700413862
 30
0.0
 10
367.1066565081516
 20
274.442019352261
 30
0.0
 10
368.3699515515427
 20
305.7498876942787
 30
0.0
 10
368.5875465917287
 20
333.0231596872817
 30
0.0
 10
368.312926488341
 20
355.8793629418543
 30
0.0
 10
367.5680456307073
 20
372.4767285359
 30
0.0
 10
367.2181912340657
 20
381.5091300216672
 30
0.0
 10
367.0432640357448
 20
386.0253307645507
 30
0.0
 11
330.292277146842
 21
59.98784349843209
 31
0.0
 11
332.2267698023825
 21
85.97101168975177
 31
0.0
 11
337.3083463772636
 21
111.4839030259345
 31
0.0
 11
344.1222580564736
 21
133.8742866718284
 31
0.0
 11
352.6752047875215
 21
165.9428537231892
 31
0.0
 11
359.4300664889524
 21
201.9627238674361
 31
0.0
 11
364.7996191312213
 21
242.3077996713536
 31
0.0
 11
367.1480476259421
 21
277.1446966040457
 31
0.0
 11
368.1652502441484
 21
303.9289004018319
 31
0.0
 11
368.486690970587
 21
336.2103084725404
 31
0.0
 11
368.1205459170996
 21
358.9289902900582
 31
0.0
 11
367.5819049764232
 21
372.4771605273044
 31
0.0
 11
367.0432640357448
 21
386.0253307645507
 31
0.0
  0
SPLINE
  5
14F0
100
AcDbEntity
  8
VHH-025
100
AcDbSpline
210
0.0
220
0.0
230
1.0
 70
     8
 71
     3
 72
    14
 73
    10
 74
     8
 42
0.0000001
 43
0.0000001
 44
0.0000000001
 40
0.0
 40
0.0
 40
0.0
 40
0.0
 40
24.96485783370184
 40
54.90026706652744
 40
79.89662429683959
 40
99.92029882395131
 40
119.840623845422
 40
149.7959527385391
 40
159.7351237798145
 40
159.7351237798145
 40
159.7351237798145
 40
159.7351237798145
 10
379.7462474898038
 20
386.5000000046348
 30
0.0
 10
380.0871508539158
 20
378.1848791763524
 30
0.0
 10
380.8368321001818
 20
359.8990809072801
 30
0.0
 10
380.9839725990266
 20
333.2617988286652
 30
0.0
 10
380.5556133581859
 20
308.2780477330198
 30
0.0
 10
379.6393733058501
 20
286.6500373889956
 30
0.0
 10
378.3161642800235
 20
263.3836102364548
 30
0.0
 10
376.185717991749
 20
243.5529180034585
 30
0.0
 10
375.1990436379918
 20
230.2912067454873
 30
0.0
 10
374.953227167547
 20
226.9872320946019
 30
0.0
 11
379.7462474898038
 21
386.5000000046348
 31
0.0
 11
380.6348450249734
 21
361.5509615246164
 31
0.0
 11
380.8697958594148
 21
331.6164743226927
 31
0.0
 11
380.4106963906033
 21
306.6243335087665
 31
0.0
 11
379.589520553005
 21
286.6175043794055
 31
0.0
 11
378.3733631498325
 21
266.7343378777704
 31
0.0
 11
375.717630788884
 21
236.8969650925901
 31
0.0
 11
374.953227167547
 21
226.9872320946019
 31
0.0
  0
LINE
  5
14F1
100
AcDbEntity
  8
VHH-025
100
AcDbLine
 10
385.979709
 20
386.5
 30
0.0
 11
385.979709
 21
227.083459
 31
0.0
  0
ARC
  5
14F2
100
AcDbEntity
  8
VHH-025
100
AcDbCircle
 10
465.537753
 20
188.603448
 30
0.0
 40
99.913308
100
AcDbArc
 50
136.900022
 51
141.619618
  0
SPLINE
  5
14F3
100
AcDbEntity
  8
VHH-025
100
AcDbSpline
210
0.0
220
0.0
230
-1.0
 70
     8
 71
     3
 72
    17
 73
    13
 74
    11
 42
0.0000001
 43
0.0000001
 44
0.0000000001
 40
0.0
 40
0.0
 40
0.0
 40
0.0
 40
11.13317027128997
 40
24.9108757116939
 40
38.68858115209782
 40
69.76969503094167
 40
101.2676885364123
 40
124.3500733866448
 40
138.3189541165026
 40
155.7653610808148
 40
163.18673965913
 40
170.608118237446
 40
170.608118237446
 40
170.608118237446
 40
170.608118237446
 10
373.5604504577568
 20
226.9750775164725
 30
0.0
 10
373.3518672205018
 20
223.265054918259
 30
0.0
 10
372.8851545975751
 20
214.9637436493562
 30
0.0
 10
370.2305123516946
 20
202.3141455895309
 30
0.0
 10
367.2278162675585
 20
183.0053654578483
 30
0.0
 10
361.5211770088324
 20
158.1595506817327
 30
0.0
 10
353.3326072596381
 20
130.8016485873982
 30
0.0
 10
347.5735848243755
 20
108.6918816859017
 30
0.0
 10
343.1393797517852
 20
91.06273034917441
 30
0.0
 10
341.6027579464444
 20
78.15793174574432
 30
0.0
 10
341.2505540256985
 20
67.40165401211772
 30
0.0
 10
341.0251797222001
 20
62.45904299039485
 30
0.0
 10
340.9124925704509
 20
59.98773747953328
 30
0.0
 11
373.5604504577568
 21
226.9750775164725
 31
0.0
 11
372.6865141856342
 21
215.8762615579207
 31
0.0
 11
370.3504267690023
 21
202.2980487600452
 31
0.0
 11
368.0143393523703
 21
188.7198359621697
 31
0.0
 11
361.2303828246968
 21
158.3881104296469
 31
0.0
 11
352.7386208688112
 21
128.0563848975371
 31
0.0
 11
346.8460091816359
 21
105.738821906063
 31
0.0
 11
343.681953309986
 21
92.1330003841531
 31
0.0
 11
341.5568792829872
 21
74.81650026593706
 31
0.0
 11
341.2346859267181
 21
67.40211887273563
 31
0.0
 11
340.9124925704509
 21
59.98773747953328
 31
0.0
  0
SPLINE
  5
14F4
100
AcDbEntity
  8
VHH-025
100
AcDbSpline
210
0.0
220
0.0
230
1.0
 70
     8
 71
     3
 72
     9
 73
     5
 74
     3
 42
0.0000001
 43
0.0000001
 44
0.0000000001
 40
0.0
 40
0.0
 40
0.0
 40
0.0
 40
0.3770111014961659
 40
0.7540222471681384
 40
0.7540222471681384
 40
0.7540222471681384
 40
0.7540222471681384
 10
340.9124925712876
 20
59.98773749881365
 30
0.0
 10
340.8788173897402
 20
59.85558228654412
 30
0.0
 10
340.8114670226996
 20
59.59127184651996
 30
0.0
 10
340.5455842897421
 20
59.53042404837073
 30
0.0
 10
340.4126429154748
 20
59.50000014751367
 30
0.0
 11
340.9124925712876
 21
59.98773749881365
 31
0.0
 11
340.7618339409818
 21
59.64213751651368
 31
0.0
 11
340.4126429154748
 21
59.50000014751367
 31
0.0
  0
SPLINE
  5
14F5
100
AcDbEntity
  8
VHH-025
100
AcDbSpline
210
0.0
220
0.0
230
-1.0
 70
     8
 71
     3
 72
    17
 73
    13
 74
    11
 42
0.0000001
 43
0.0000001
 44
0.0000000001
 40
0.0
 40
0.0
 40
0.0
 40
0.0
 40
3.164520904192445
 40
6.722782324755602
 40
8.69432228506978
 40
12.65402331178052
 40
16.36329337802572
 40
20.0729869276318
 40
22.54845777733548
 40
26.54284856401899
 40
32.44730093607204
 40
38.40507736276597
 40
38.40507736276597
 40
38.40507736276597
 40
38.40507736276597
 10
283.8035850039486
 20
60.00640783684412
 30
0.0
 10
283.7490993956972
 20
61.05976015485378
 30
0.0
 10
283.6333488934265
 20
63.29752648968003
 30
0.0
 10
283.5306378901557
 20
66.19531451152529
 30
0.0
 10
283.2094681460874
 20
69.34282192950528
 30
0.0
 10
283.0248539802003
 20
72.5527546809258
 30
0.0
 10
281.826350783889
 20
76.24669409993787
 30
0.0
 10
279.3545121531515
 20
78.6690563440486
 30
0.0
 10
276.1490067732392
 20
79.86245928885352
 30
0.0
 10
272.1169282132421
 20
80.74500794120197
 30
0.0
 10
266.8771662910223
 20
81.48532398479567
 30
0.0
 10
262.9337799630592
 20
81.78217041484634
 30
0.0
 10
260.953223483777
 20
81.93126083396647
 30
0.0
 11
283.8035850039486
 21
60.00640783684412
 31
0.0
 11
283.6481780397753
 21
63.16711048476236
 31
0.0
 11
283.461449717859
 21
66.72046901872182
 31
0.0
 11
283.2863870782857
 21
68.68422126565656
 31
0.0
 11
282.8438647570801
 21
72.61911722567493
 31
0.0
 11
281.5584305227967
 21
76.09853431100328
 31
0.0
 11
278.9013864608587
 21
78.68734544449853
 31
0.0
 11
276.6169414858213
 21
79.64090041604413
 31
0.0
 11
272.731887217029
 21
80.56907663060702
 31
0.0
 11
266.8889508002848
 21
81.41916594575468
 31
0.0
 11
260.953223483777
 21
81.93126083396647
 31
0.0
  0
SPLINE
  5
14F6
100
AcDbEntity
  8
VHH-025
100
AcDbSpline
210
0.0
220
0.0
230
-1.0
 70
     8
 71
     3
 72
    15
 73
    11
 74
     9
 42
0.0000001
 43
0.0000001
 44
0.0000000001
 40
0.0
 40
0.0
 40
0.0
 40
0.0
 40
7.302496459161983
 40
12.59524837450552
 40
18.80805435543992
 40
23.02163368340659
 40
26.74921606703872
 40
34.35975472104273
 40
40.28399564046994
 40
46.1219228007465
 40
46.1219228007465
 40
46.1219228007465
 40
46.1219228007465
 10
260.9532232615674
 20
86.77974801383516
 30
0.0
 10
263.3845667202856
 20
86.60399558652011
 30
0.0
 10
267.5781154494827
 20
86.30086014690235
 30
0.0
 10
273.7417632284246
 20
85.22260429944529
 30
0.0
 10
278.9603082479537
 20
84.2932087901676
 30
0.0
 10
283.1001459877565
 20
81.88295042823858
 30
0.0
 10
286.7421289632622
 20
78.05825716618503
 30
0.0
 10
288.2309365122687
 20
72.25216336464228
 30
0.0
 10
288.8888864162071
 20
65.87033009659466
 30
0.0
 10
289.0569175394773
 20
61.94700106174584
 30
0.0
 10
289.1403165737083
 20
59.99973173384296
 30
0.0
 11
260.9532232615674
 21
86.77974801383516
 31
0.0
 11
268.2250949914759
 21
86.11166412701368
 31
0.0
 11
273.4506543584757
 21
85.2709786095138
 31
0.0
 11
279.4777915314753
 21
83.76347217351394
 31
0.0
 11
283.1119494199756
 21
81.63106808551402
 31
0.0
 11
285.6514967774746
 21
78.90241097151374
 31
0.0
 11
288.1526339050069
 21
71.71460103570097
 31
0.0
 11
288.8331045149752
 21
65.82957000601346
 31
0.0
 11
289.1403165737083
 21
59.99973173384296
 31
0.0
  0
LINE
  5
14F7
100
AcDbEntity
  8
VHH-025
100
AcDbLine
 10
340.508916
 20
59.518456
 30
0.0
 11
260.953238
 21
59.518456
 31
0.0
  0
LINE
  5
14F8
100
AcDbEntity
  8
VHH-025
100
AcDbLine
 10
260.953238
 20
57.5
 30
0.0
 11
339.869611
 21
58.188693
 31
0.0
  0
LINE
  5
14F9
100
AcDbEntity
  8
VHH-025
100
AcDbLine
 10
339.869611
 20
58.188693
 30
0.0
 11
339.869611
 21
59.5
 31
0.0
  0
SPLINE
  5
14FA
100
AcDbEntity
  8
VHH-025
100
AcDbSpline
210
0.0
220
0.0
230
-1.0
 70
     8
 71
     3
 72
    12
 73
     8
 74
     6
 42
0.0000001
 43
0.0000001
 44
0.0000000001
 40
0.0
 40
0.0
 40
0.0
 40
0.0
 40
0.7759383456500434
 40
1.313673913555993
 40
1.814968045951748
 40
2.371579175917004
 40
2.926100784724154
 40
2.926100784724154
 40
2.926100784724154
 40
2.926100784724154
 10
315.2945812825273
 20
38.77343598060588
 30
0.0
 10
315.2431570978346
 20
39.02823095789993
 30
0.0
 10
315.1560952709054
 20
39.45960223482256
 30
0.0
 10
314.8431090263083
 20
39.99438635651778
 30
0.0
 10
314.3943929993052
 20
40.31079526506682
 30
0.0
 10
313.8620660962846
 20
40.42296048280289
 30
0.0
 10
313.4960334288728
 20
40.47435237564147
 30
0.0
 10
313.3133612633191
 20
40.49999999999999
 30
0.0
 11
315.2945812825273
 21
38.77343598060588
 31
0.0
 11
315.0916474159949
 21
39.52236732730216
 31
0.0
 11
314.8065553573014
 21
39.97830817769954
 31
0.0
 11
314.3983268477732
 21
40.26924681587388
 31
0.0
 11
313.8615762360841
 21
40.41660600578961
 31
0.0
 11
313.3133612633191
 21
40.49999999999999
 31
0.0
  0
SPLINE
  5
14FB
100
AcDbEntity
  8
VHH-025
100
AcDbSpline
210
0.0
220
0.0
230
-1.0
 70
     8
 71
     3
 72
    12
 73
     8
 74
     6
 42
0.0000001
 43
0.0000001
 44
0.0000000001
 40
0.0
 40
0.0
 40
0.0
 40
0.0
 40
0.7759383456500434
 40
1.313673913555993
 40
1.814968045951748
 40
2.371579175917004
 40
2.926100784725953
 40
2.926100784725953
 40
2.926100784725953
 40
2.926100784725953
 10
292.811865304422
 20
38.77343598060588
 30
0.0
 10
292.8632894891148
 20
39.02823095789993
 30
0.0
 10
292.950351316044
 20
39.45960223482256
 30
0.0
 10
293.2633375606411
 20
39.99438635651779
 30
0.0
 10
293.7120535876441
 20
40.3107952650668
 30
0.0
 10
294.2443804906654
 20
40.42296048280308
 30
0.0
 10
294.6104131580777
 20
40.4743523756415
 30
0.0
 10
294.7930853236321
 20
40.49999999999999
 30
0.0
 11
292.811865304422
 21
38.77343598060588
 31
0.0
 11
293.0147991709545
 21
39.52236732730216
 31
0.0
 11
293.2998912296479
 21
39.97830817769954
 31
0.0
 11
293.7081197391762
 21
40.26924681587388
 31
0.0
 11
294.2448703508653
 21
40.41660600578961
 31
0.0
 11
294.7930853236321
 21
40.49999999999999
 31
0.0
  0
ARC
  5
14FC
100
AcDbEntity
  8
VHH-025
100
AcDbCircle
 10
303.560052
 20
-76.966469
 30
0.0
 40
117.793171
100
AcDbArc
 50
89.760116
 51
94.268287
  0
ARC
  5
14FD
100
AcDbEntity
  8
VHH-025
100
AcDbCircle
 10
304.546395
 20
-76.966469
 30
0.0
 40
117.793171
100
AcDbArc
 50
85.731713
 51
90.239884
  0
ELLIPSE
  5
14FE
100
AcDbEntity
  8
VHH-025
100
AcDbEllipse
 10
357.853891
 20
66.5
 30
0.0
 11
6.0
 21
0.0
 31
0.0
210
0.0
220
0.0
230
-1.0
 40
0.195141
 41
3.141592653589793
 42
6.283185307179586
  0
ARC
  5
14FF
100
AcDbEntity
  8
VHH-025
100
AcDbCircle
 10
368.853891
 20
67.5
 30
0.0
 40
1.0
100
AcDbArc
 50
270.0
 51
0.0
  0
LINE
  5
1500
100
AcDbEntity
  8
VHH-025
100
AcDbLine
 10
341.195484
 20
66.5
 30
0.0
 11
351.853891
 21
66.5
 31
0.0
  0
LINE
  5
1501
100
AcDbEntity
  8
VHH-025
100
AcDbLine
 10
363.853891
 20
66.5
 30
0.0
 11
368.853891
 21
66.5
 31
0.0
  0
LINE
  5
1502
100
AcDbEntity
  8
VHH-025
100
AcDbLine
 10
369.853891
 20
67.5
 30
0.0
 11
369.853891
 21
87.5
 31
0.0
  0
ARC
  5
1503
100
AcDbEntity
  8
VHH-025
100
AcDbCircle
 10
368.853891
 20
87.5
 30
0.0
 40
1.0
100
AcDbArc
 50
0.0
 51
90.0
  0
LINE
  5
1504
100
AcDbEntity
  8
VHH-025
100
AcDbLine
 10
368.853891
 20
88.5
 30
0.0
 11
343.236113
 21
88.5
 31
0.0
  0
ARC
  5
1505
100
AcDbEntity
  8
VHH-025
100
AcDbCircle
 10
422.080817
 20
223.500004
 30
0.0
 40
1.0
100
AcDbArc
 50
190.000001
 51
270.000001
  0
LINE
  5
1506
100
AcDbEntity
  8
VHH-025
100
AcDbLine
 10
421.09601
 20
223.326356
 30
0.0
 11
420.380595
 21
227.383671
 31
0.0
  0
LINE
  5
1507
100
AcDbEntity
  8
VHH-025
100
AcDbLine
 10
428.1596
 20
223.33134
 30
0.0
 11
428.160871
 21
223.326356
 31
0.0
  0
LINE
  5
1508
100
AcDbEntity
  8
VHH-025
100
AcDbLine
 10
428.13857
 20
223.500004
 30
0.0
 11
428.1596
 21
223.33134
 31
0.0
  0
LINE
  5
1509
100
AcDbEntity
  8
VHH-025
100
AcDbLine
 10
428.139463
 20
223.534903
 30
0.0
 11
428.13857
 21
223.500004
 31
0.0
  0
LINE
  5
150A
100
AcDbEntity
  8
VHH-025
100
AcDbLine
 10
425.746614
 20
250.500004
 30
0.0
 11
424.570735
 21
250.500004
 31
0.0
  0
LINE
  5
150B
100
AcDbEntity
  8
VHH-025
100
AcDbLine
 10
421.09601
 20
223.326356
 30
0.0
 11
428.160871
 21
223.326356
 31
0.0
  0
LINE
  5
150C
100
AcDbEntity
  8
VHH-025
100
AcDbLine
 10
423.539188
 20
250.500004
 30
0.0
 11
422.802746
 21
250.500004
 31
0.0
  0
ARC
  5
150D
100
AcDbEntity
  8
VHH-025
100
AcDbCircle
 10
442.293111
 20
225.05981
 30
0.0
 40
15.0
100
AcDbArc
 50
193.455344
 51
195.0
  0
LINE
  5
150E
100
AcDbEntity
  8
VHH-025
100
AcDbLine
 10
427.704837
 20
221.569499
 30
0.0
 11
427.540764
 21
222.500004
 31
0.0
  0
LINE
  5
150F
100
AcDbEntity
  8
VHH-025
100
AcDbLine
 10
373.337053
 20
224.19934
 30
0.0
 11
374.953227
 21
224.19934
 31
0.0
  0
LINE
  5
1510
100
AcDbEntity
  8
VHH-025
100
AcDbLine
 10
374.953227
 20
226.987232
 30
0.0
 11
374.953227
 21
224.19934
 31
0.0
  0
ARC
  5
1511
100
AcDbEntity
  8
VHH-025
100
AcDbCircle
 10
374.953227
 20
225.19934
 30
0.0
 40
1.0
100
AcDbArc
 50
270.000001
 51
0.000001
  0
LINE
  5
1512
100
AcDbEntity
  8
VHH-025
100
AcDbLine
 10
375.953227
 20
226.995959
 30
0.0
 11
375.953227
 21
225.19934
 31
0.0
  0
ARC
  5
1513
100
AcDbEntity
  8
VHH-025
100
AcDbCircle
 10
-72.206915
 20
201.799463
 30
0.0
 40
500.0
100
AcDbArc
 50
10.0
 51
20.0
  0
LINE
  5
1514
100
AcDbEntity
  8
VHH-025
100
AcDbLine
 10
391.835853
 20
257.346069
 30
0.0
 11
391.835853
 21
386.5
 31
0.0
  0
LINE
  5
1515
100
AcDbEntity
  8
VHH-025
100
AcDbLine
 10
393.72841
 20
257.220053
 30
0.0
 11
393.72841
 21
386.5
 31
0.0
  0
LINE
  5
1516
100
AcDbEntity
  8
VHH-025
100
AcDbLine
 10
391.838537
 20
321.773567
 30
0.0
 11
391.838537
 21
386.5
 31
0.0
  0
ARC
  5
1517
100
AcDbEntity
  8
VHH-025
100
AcDbCircle
 10
423.037177
 20
258.050004
 30
0.0
 40
0.75
100
AcDbArc
 50
90.0
 51
178.0
  0
LINE
  5
1518
100
AcDbEntity
  8
VHH-025
100
AcDbLine
 10
420.196961
 20
288.623552
 30
0.0
 11
425.455657
 21
258.800004
 31
0.0
  0
LINE
  5
1519
100
AcDbEntity
  8
VHH-025
100
AcDbLine
 10
391.838537
 20
257.770171
 30
0.0
 11
391.838537
 21
321.773567
 31
0.0
  0
SPLINE
  5
151A
100
AcDbEntity
  8
VHH-025
100
AcDbSpline
210
0.0
220
0.0
230
1.0
 70
     8
 71
     3
 72
    10
 73
     6
 74
     0
 42
0.0000001
 43
0.0000001
 40
0.0
 40
0.0
 40
0.0
 40
0.0
 40
0.568593902059437
 40
1.355825749874721
 40
2.322054057115686
 40
2.322054057115686
 40
2.322054057115686
 40
2.322054057115686
 10
394.1532222249534
 20
257.2000001895221
 30
0.0
 10
393.9638609729481
 20
257.2083665587328
 30
0.0
 10
393.512324541467
 20
257.2283163660876
 30
0.0
 10
392.7408273215678
 20
257.2922794532032
 30
0.0
 10
392.1574069406724
 20
257.3276103605644
 30
0.0
 10
391.8358532034781
 20
257.3460686021144
 30
0.0
  0
LINE
  5
151B
100
AcDbEntity
  8
VHH-025
100
AcDbLine
 10
260.953238
 20
386.5
 30
0.0
 11
394.198478
 21
386.5
 31
0.0
  0
LINE
  5
151C
100
AcDbEntity
  8
VHH-025
100
AcDbLine
 10
260.916386
 20
387.500322
 30
0.0
 11
379.705452
 21
387.500321
 31
0.0
  0
LINE
  5
151D
100
AcDbEntity
  8
VHH-025
100
AcDbLine
 10
375.674513
 20
397.500113
 30
0.0
 11
260.953238
 21
397.500113
 31
0.0
  0
LINE
  5
151E
100
AcDbEntity
  8
VHH-025
100
AcDbLine
 10
357.509275
 20
401.2
 30
0.0
 11
260.953238
 21
401.2
 31
0.0
  0
LINE
  5
151F
100
AcDbEntity
  8
VHH-025
100
AcDbLine
 10
357.216815
 20
398.4
 30
0.0
 11
260.959171
 21
398.4
 31
0.0
  0
LINE
  5
1520
100
AcDbEntity
  8
VHH-025
100
AcDbLine
 10
344.847691
 20
406.731932
 30
0.0
 11
336.657399
 21
406.731932
 31
0.0
  0
SPLINE
  5
1521
100
AcDbEntity
  8
VHH-025
100
AcDbSpline
210
0.0
220
0.0
230
1.0
 70
     8
 71
     3
 72
    12
 73
     8
 74
     6
 42
0.0000001
 43
0.0000001
 44
0.0000000001
 40
0.0
 40
0.0
 40
0.0
 40
0.0
 40
2.128122853362889
 40
4.257937900599092
 40
5.852538398869365
 40
7.181179032202514
 40
8.513715579531313
 40
8.513715579531313
 40
8.513715579531313
 40
8.513715579531313
 10
283.801606930212
 20
387.5003214598655
 30
0.0
 10
283.7445934613532
 20
388.2078202297922
 30
0.0
 10
283.6305211889206
 20
389.6233803429399
 30
0.0
 10
283.2546360705062
 20
391.5424078181536
 30
0.0
 10
282.7992578391458
 20
393.1644269696802
 30
0.0
 10
282.3593870853083
 20
394.514059392814
 30
0.0
 10
282.0264334890134
 20
395.3365247874422
 30
0.0
 10
281.8597129719237
 20
395.7483595217918
 30
0.0
 11
283.801606930212
 21
387.5003214598655
 31
0.0
 11
283.5907486819378
 21
389.6179724410567
 31
0.0
 11
283.1887248278926
 21
391.7095003409931
 31
0.0
 11
282.7637737927034
 21
393.2464347464819
 31
0.0
 11
282.3453575256717
 21
394.5074715262894
 31
0.0
 11
281.8597129719237
 21
395.7483595217918
 31
0.0
  0
SPLINE
  5
1522
100
AcDbEntity
  8
VHH-025
100
AcDbSpline
210
0.0
220
0.0
230
1.0
 70
     8
 71
     3
 72
    11
 73
     7
 74
     5
 42
0.0000001
 43
0.0000001
 44
0.0000000001
 40
0.0
 40
0.0
 40
0.0
 40
0.0
 40
2.057130867814022
 40
4.132182001842799
 40
6.210229597500894
 40
8.264473509482114
 40
8.264473509482114
 40
8.264473509482114
 40
8.264473509482114
 10
289.0334193196558
 20
387.500291478087
 30
0.0
 10
288.9955635097621
 20
388.1854217674555
 30
0.0
 10
288.9195221169877
 20
389.5616507157157
 30
0.0
 10
288.5894802051209
 20
391.607697415776
 30
0.0
 10
288.1657030552678
 20
393.6349223745928
 30
0.0
 10
287.7558981501246
 20
394.9508101502667
 30
0.0
 10
287.5521760192114
 20
395.6049640130886
 30
0.0
 11
289.0334193196558
 21
387.500291478087
 31
0.0
 11
288.884271781857
 21
389.5520084223271
 31
0.0
 11
288.5739577642034
 21
391.6037253665672
 31
0.0
 11
288.1317861018651
 21
393.634184928057
 31
0.0
 11
287.5521760192114
 21
395.6049640130886
 31
0.0
  0
SPLINE
  5
1523
100
AcDbEntity
  8
VHH-025
100
AcDbSpline
210
0.0
220
0.0
230
1.0
 70
     8
 71
     3
 72
    16
 73
    12
 74
    10
 42
0.0000001
 43
0.0000001
 44
0.0000000001
 40
0.0
 40
0.0
 40
0.0
 40
0.0
 40
3.118083428797114
 40
6.320178756713501
 40
10.06862747037444
 40
14.74762083375841
 40
19.06180419313177
 40
22.0755857405445
 40
24.75954502662292
 40
27.43874846259851
 40
30.34745987100871
 40
30.34745987100871
 40
30.34745987100871
 40
30.34745987100871
 10
260.9532232909641
 20
372.6328993309416
 30
0.0
 10
261.9909317751786
 20
372.6956379791703
 30
0.0
 10
264.0943081816668
 20
372.8228056707396
 30
0.0
 10
267.4295199335928
 20
373.1940057179969
 30
0.0
 10
271.2731744264449
 20
373.7619655735516
 30
0.0
 10
275.3895866044442
 20
374.6826885703967
 30
0.0
 10
279.3818327948534
 20
375.6357564231927
 30
0.0
 10
281.9109601228475
 20
377.9550526010387
 30
0.0
 10
283.3394357447799
 20
380.4053804726951
 30
0.0
 10
283.8312605613925
 20
383.1593228168742
 30
0.0
 10
283.8282201037025
 20
385.0214485079421
 30
0.0
 10
283.8266374357099
 20
385.9907521556069
 30
0.0
 11
260.9532232909641
 21
372.6328993309416
 31
0.0
 11
264.063956036487
 21
372.8468760933965
 31
0.0
 11
267.2474499318977
 21
373.1915224439453
 31
0.0
 11
270.9532176877946
 21
373.7555730607355
 31
0.0
 11
275.5303925015086
 21
374.7263715049521
 31
0.0
 11
279.6113159012238
 21
376.1257436012692
 31
0.0
 11
281.8634207862378
 21
378.1284674470407
 31
0.0
 11
283.1910646645719
 21
380.4610623929429
 31
0.0
 11
283.7405376650294
 21
383.0833153313742
 31
0.0
 11
283.8266374357099
 21
385.9907521556069
 31
0.0
  0
SPLINE
  5
1524
100
AcDbEntity
  8
VHH-025
100
AcDbSpline
210
0.0
220
0.0
230
1.0
 70
     8
 71
     3
 72
    16
 73
    12
 74
    10
 42
0.0000001
 43
0.0000001
 44
0.0000000001
 40
0.0
 40
0.0
 40
0.0
 40
0.0
 40
3.194959215303493
 40
6.418886637236189
 40
9.645058705998168
 40
12.33323980390375
 40
16.09204151732409
 40
21.4883039725123
 40
28.43654563334902
 40
33.42751231049396
 40
38.15289330752381
 40
38.15289330752381
 40
38.15289330752381
 40
38.15289330752381
 10
289.0653833477426
 20
386.000123811672
 30
0.0
 10
289.0507773449256
 20
384.9336119096563
 30
0.0
 10
289.0214329088974
 20
382.7909182053014
 30
0.0
 10
288.3898199887875
 20
379.6178458988863
 30
0.0
 10
287.1900462144992
 20
376.782028018134
 30
0.0
 10
285.2172851887416
 20
374.2066148826164
 30
0.0
 10
282.1299941569343
 20
371.6390355895682
 30
0.0
 10
276.9310324471306
 20
369.976657820509
 30
0.0
 10
271.2702360737941
 20
368.9053294406619
 30
0.0
 10
265.7579494214254
 20
368.1563576141578
 30
0.0
 10
262.5253454281895
 20
367.9496848894456
 30
0.0
 10
260.9532232694527
 20
367.8491731129315
 30
0.0
 11
289.0653833477426
 21
386.000123811672
 31
0.0
 11
288.9246955052876
 21
382.8082636458066
 31
0.0
 11
288.2839280954758
 21
379.6486552605138
 31
0.0
 11
286.9915605394744
 21
376.6926491175136
 31
0.0
 11
285.3720332374741
 21
374.5470841725136
 31
0.0
 11
282.4609007624749
 21
372.1692914915138
 31
0.0
 11
277.4233770599512
 21
370.2346071679649
 31
0.0
 11
270.6139773889062
 21
368.8525296385332
 31
0.0
 11
265.6651796464448
 21
368.205112248761
 31
0.0
 11
260.9532232694527
 21
367.8491731129315
 31
0.0
  0
LINE
  5
1525
100
AcDbEntity
  8
VHH-025
100
AcDbLine
 10
320.183906
 20
401.2
 30
0.0
 11
260.953223
 21
401.2
 31
0.0
  0
SPLINE
  5
1526
100
AcDbEntity
  8
VHH-025
100
AcDbSpline
210
0.0
220
0.0
230
-1.0
 70
     8
 71
     3
 72
    13
 73
     9
 74
     7
 42
0.0000001
 43
0.0000001
 44
0.0000000001
 40
0.0
 40
0.0
 40
0.0
 40
0.0
 40
3.897870773001479
 40
6.508530334872476
 40
10.44133798821843
 40
14.39359530149783
 40
18.35693930596746
 40
20.87086419409461
 40
20.87086419409461
 40
20.87086419409461
 40
20.87086419409461
 10
281.8597129719237
 20
395.7483595217918
 30
0.0
 10
280.5606628032799
 20
395.7737689937673
 30
0.0
 10
278.3915535840359
 20
395.8161968547141
 30
0.0
 10
274.9112778408187
 20
395.8528834948342
 30
0.0
 10
271.4127791830813
 20
395.8771520161618
 30
0.0
 10
267.4633114383325
 20
395.886070148625
 30
0.0
 10
263.9868020179742
 20
395.888973356035
 30
0.0
 10
261.8277145683415
 20
395.8854642906834
 30
0.0
 10
260.9897404522016
 20
395.8841023699624
 30
0.0
 11
281.8597129719237
 21
395.7483595217918
 31
0.0
 11
277.962456743553
 21
395.8175726234785
 31
0.0
 11
275.3519628896719
 21
395.8469866819832
 31
0.0
 11
271.4192483401802
 21
395.8740479168527
 31
0.0
 11
267.4670065521604
 21
395.8851257957285
 31
0.0
 11
263.5036631932762
 21
395.8873879525936
 31
0.0
 11
260.9897404522016
 21
395.8841023699624
 31
0.0
  0
SPLINE
  5
1527
100
AcDbEntity
  8
VHH-025
100
AcDbSpline
210
0.0
220
0.0
230
-1.0
 70
     8
 71
     3
 72
    12
 73
     8
 74
     0
 42
0.0000001
 43
0.0000001
 40
0.0
 40
0.0
 40
0.0
 40
0.0
 40
7.238661364027795
 40
12.77439061592844
 40
18.30714172566205
 40
22.55915629774916
 40
23.98436751189947
 40
23.98436751189947
 40
23.98436751189947
 40
23.98436751189947
 10
260.9532234064245
 20
406.6912746974849
 30
0.0
 10
263.3622550563432
 20
406.5214946182991
 30
0.0
 10
267.613581338177
 20
406.2218760919936
 30
0.0
 10
273.6273002571451
 20
405.1644917197368
 30
0.0
 10
278.6452877014489
 20
404.1826743971246
 30
0.0
 10
282.1231627963861
 20
402.6630199368432
 30
0.0
 10
283.6295760852808
 20
401.5099755596265
 30
0.0
 10
283.9913569014315
 20
401.2000001475094
 30
0.0
  0
SPLINE
  5
1528
100
AcDbEntity
  8
VHH-025
100
AcDbSpline
210
0.0
220
0.0
230
-1.0
 70
     8
 71
     3
 72
     9
 73
     5
 74
     0
 42
0.0000001
 43
0.0000001
 40
24.33437423528268
 40
24.33437423528268
 40
24.33437423528268
 40
24.33437423528268
 40
27.44636293520067
 40
31.52642725135041
 40
31.52642725135041
 40
31.52642725135041
 40
31.52642725135041
 10
268.1120932052544
 20
401.2000001475139
 30
0.0
 10
267.0847255736061
 20
401.3462899622713
 30
0.0
 10
264.7035425357116
 20
401.6459617004516
 30
0.0
 10
262.3106917625536
 20
401.7970629328997
 30
0.0
 10
260.9532233134723
 20
401.8827829276301
 30
0.0
  0
LWPOLYLINE
  5
1529
100
AcDbEntity
  8
VHH-025
100
AcDbPolyline
 90
        3
 70
     0
 43
0.0
 10
300.25806
 20
435.038788
 10
300.270921
 20
435.341956
 10
300.374119
 20
435.62731
  0
LWPOLYLINE
  5
152A
100
AcDbEntity
  8
VHH-025
100
AcDbPolyline
 90
        5
 70
     0
 43
0.0
 10
300.3741
 20
435.62732
 10
300.996588
 20
436.660375
 10
303.019548
 20
439.786603
 10
305.375839
 20
443.463103
 10
306.019395
 20
444.512355
  0
LWPOLYLINE
  5
152B
100
AcDbEntity
  8
VHH-025
100
AcDbPolyline
 90
        6
 70
     0
 43
0.0
 10
300.257978
 20
435.038788
 10
299.79051
 20
435.038838
 10
298.412382
 20
435.038966
 10
296.474194
 20
435.039115
 10
293.870528
 20
435.039251
 10
260.883955
 20
435.039689
  0
LINE
  5
152C
100
AcDbEntity
  8
VHH-025
100
AcDbLine
 10
260.848198
 20
420.559589
 30
0.0
 11
299.226926
 21
427.326795
 31
0.0
  0
LINE
  5
152D
100
AcDbEntity
  8
VHH-025
100
AcDbLine
 10
260.848198
 20
429.515792
 30
0.0
 11
300.867561
 21
429.515792
 31
0.0
  0
LINE
  5
152E
100
AcDbEntity
  8
VHH-025
100
AcDbLine
 10
260.848198
 20
427.326795
 30
0.0
 11
299.226926
 21
427.326795
 31
0.0
  0
ARC
  5
152F
100
AcDbEntity
  8
VHH-025
100
AcDbCircle
 10
298.87963
 20
429.29641
 30
0.0
 40
2.0
100
AcDbArc
 50
280.0
 51
6.297506
  0
LINE
  5
1530
100
AcDbEntity
  8
VHH-025
100
AcDbLine
 10
300.25806
 20
435.038788
 30
0.0
 11
300.867561
 21
429.515792
 31
0.0
  0
LINE
  5
1531
100
AcDbEntity
  8
VHH-025
100
AcDbLine
 10
305.873856
 20
444.588335
 30
0.0
 11
307.203776
 21
443.894568
 31
0.0
  0
ARC
  5
1532
100
AcDbEntity
  8
VHH-025
100
AcDbCircle
 10
312.771758
 20
450.784447
 30
0.0
 40
1.75
100
AcDbArc
 50
105.795744
 51
152.450722
  0
LINE
  5
1533
100
AcDbEntity
  8
VHH-025
100
AcDbLine
 10
307.203776
 20
443.894568
 30
0.0
 11
311.220184
 21
451.593842
 31
0.0
  0
LINE
  5
1534
100
AcDbEntity
  8
VHH-025
100
AcDbLine
 10
310.391619
 20
453.248683
 30
0.0
 11
305.873856
 21
444.588335
 31
0.0
  0
ARC
  5
1535
100
AcDbEntity
  8
VHH-025
100
AcDbCircle
 10
322.752545
 20
399.650106
 30
0.0
 40
3.0
100
AcDbArc
 50
116.737455
 51
148.893436
  0
ARC
  5
1536
100
AcDbEntity
  8
VHH-025
100
AcDbCircle
 10
340.748661
 20
363.927007
 30
0.0
 40
43.0
100
AcDbArc
 50
95.459702
 51
116.737455
  0
LINE
  5
1537
100
AcDbEntity
  8
VHH-025
100
AcDbLine
 10
379.792968
 20
386.5
 30
0.0
 11
379.070184
 21
394.761467
 31
0.0
  0
LINE
  5
1538
100
AcDbEntity
  8
VHH-025
100
AcDbLine
 10
393.389833
 20
401.929869
 30
0.0
 11
394.198478
 21
386.5
 31
0.0
  0
LINE
  5
1539
100
AcDbEntity
  8
VHH-025
100
AcDbLine
 10
385.762519
 20
400.550479
 30
0.0
 11
386.231271
 21
386.5
 31
0.0
  0
LINE
  5
153A
100
AcDbEntity
  8
VHH-025
100
AcDbLine
 10
391.339286
 20
401.962593
 30
0.0
 11
392.109946
 21
386.5
 31
0.0
  0
LINE
  5
153B
100
AcDbEntity
  8
VHH-025
100
AcDbLine
 10
366.290498
 20
395.674535
 30
0.0
 11
366.927299
 21
387.500224
 31
0.0
  0
LINE
  5
153C
100
AcDbEntity
  8
VHH-025
100
AcDbLine
 10
396.480002
 20
405.232984
 30
0.0
 11
407.33555
 21
375.407611
 31
0.0
  0
LINE
  5
153D
100
AcDbEntity
  8
VHH-025
100
AcDbLine
 10
393.72841
 20
383.554879
 30
0.0
 11
397.639395
 21
372.809534
 31
0.0
  0
LINE
  5
153E
100
AcDbEntity
  8
VHH-025
100
AcDbLine
 10
405.76617
 20
441.42389
 30
0.0
 11
406.26617
 21
441.42389
 31
0.0
  0
LINE
  5
153F
100
AcDbEntity
  8
VHH-025
100
AcDbLine
 10
403.76617
 20
441.42389
 30
0.0
 11
407.26617
 21
441.42389
 31
0.0
  0
SPLINE
  5
1540
100
AcDbEntity
  8
VHH-025
100
AcDbSpline
210
0.0
220
0.0
230
-1.0
 70
     8
 71
     3
 72
    13
 73
     9
 74
     0
 42
0.0000001
 43
0.0000001
 40
0.1937856429176761
 40
0.1937856429176761
 40
0.1937856429176761
 40
0.1937856429176761
 40
8.961700572298635
 40
14.47903748286709
 40
19.8035367125911
 40
25.52467147722549
 40
30.6721058665509
 40
31.94471183324987
 40
31.94471183324987
 40
31.94471183324987
 40
31.94471183324987
 10
392.1879936787727
 20
403.0670610647759
 30
0.0
 10
389.2653234380477
 20
403.0585392610184
 30
0.0
 10
384.5035291239828
 20
403.0437948806705
 30
0.0
 10
377.9677463076741
 20
402.9345942277434
 30
0.0
 10
372.4482209688257
 20
402.8046950804649
 30
0.0
 10
367.0534001602363
 20
402.6289890415812
 30
0.0
 10
363.0089327015125
 20
402.4794980967429
 30
0.0
 10
360.8717458092223
 20
402.3694675390418
 30
0.0
 10
358.980771216843
 20
402.1447204853004
 30
0.0
  0
SPLINE
  5
1541
100
AcDbEntity
  8
VHH-025
100
AcDbSpline
210
0.0
220
0.0
230
1.0
 70
     8
 71
     3
 72
    13
 73
     9
 74
     0
 42
0.0000001
 43
0.0000001
 40
0.0
 40
0.0
 40
0.0
 40
0.0
 40
7.736192774732621
 40
11.87999246488146
 40
16.02379215502848
 40
19.15845129091839
 40
22.14666940608316
 40
28.54169119152025
 40
28.54169119152025
 40
28.54169119152025
 40
28.54169119152025
 10
385.7625339563155
 20
400.5504793798666
 30
0.0
 10
383.1840565070115
 20
400.5133188772754
 30
0.0
 10
379.2244482655187
 20
400.4562537932436
 30
0.0
 10
373.8832847769681
 20
400.420603059237
 30
0.0
 10
370.0759998017411
 20
400.3888667809435
 30
0.0
 10
366.6538632540655
 20
400.3640878935214
 30
0.0
 10
362.4813562118983
 20
400.3315258927898
 30
0.0
 10
359.3536596542717
 20
400.3138264532947
 30
0.0
 10
357.2220129994079
 20
400.302800560101
 30
0.0
  0
SPLINE
  5
1542
100
AcDbEntity
  8
VHH-025
100
AcDbSpline
210
0.0
220
0.0
230
-1.0
 70
     8
 71
     3
 72
    14
 73
    10
 74
     8
 42
0.0000001
 43
0.0000001
 44
0.0000000001
 40
0.0
 40
0.0
 40
0.0
 40
0.0
 40
2.531510960170512
 40
5.063021920342906
 40
10.16213907704033
 40
14.26825733465622
 40
17.8486589903219
 40
21.88850135563867
 40
24.42001231580885
 40
24.42001231580885
 40
24.42001231580885
 40
24.42001231580885
 10
399.8274438171029
 20
440.9500845385337
 30
0.0
 10
399.2835137694693
 20
441.6071591771871
 30
0.0
 10
398.1956536742018
 20
442.9213084544944
 30
0.0
 10
395.0692024300213
 20
444.4247081004134
 30
0.0
 10
391.152181829675
 20
444.9414753849658
 30
0.0
 10
386.8780930356037
 20
444.9533086095564
 30
0.0
 10
383.0156257650543
 20
444.4811479616977
 30
0.0
 10
379.6682375372867
 20
443.3121930936954
 30
0.0
 10
378.2509028955649
 20
441.6069880700878
 30
0.0
 10
377.7048969205352
 20
440.9500845385341
 30
0.0
 11
399.8274438171029
 21
440.9500845385337
 31
0.0
 11
398.0782004106349
 21
442.7800285940698
 31
0.0
 11
395.8372381806839
 21
443.9575836991098
 31
0.0
 11
390.819229497627
 21
444.8634449658011
 31
0.0
 11
386.7131112400111
 21
444.8634449658015
 31
0.0
 11
383.1663662096689
 21
444.3736738910774
 31
0.0
 11
379.4541403270031
 21
442.7800285940698
 31
0.0
 11
377.7048969205352
 21
440.9500845385341
 31
0.0
  0
SPLINE
  5
1543
100
AcDbEntity
  8
VHH-025
100
AcDbSpline
210
0.0
220
0.0
230
-1.0
 70
     8
 71
     3
 72
    12
 73
     8
 74
     6
 42
0.0000001
 43
0.0000001
 44
0.0000000001
 40
0.0
 40
0.0
 40
0.0
 40
0.0
 40
1.479416236491443
 40
2.562291865493325
 40
3.176012830942445
 40
3.981643942695012
 40
4.832551523539343
 40
4.832551523539343
 40
4.832551523539343
 40
4.832551523539343
 10
375.6745130812869
 20
397.5001128676513
 30
0.0
 10
376.1772602035553
 20
397.4853912368025
 30
0.0
 10
377.047998830058
 20
397.4598939399363
 30
0.0
 10
377.9728764756041
 20
396.8731157835526
 30
0.0
 10
378.553611042558
 20
396.2701985354511
 30
0.0
 10
378.9051082572534
 20
395.582832951403
 30
0.0
 10
379.0141649548079
 20
395.0401995197578
 30
0.0
 10
379.0701836708849
 20
394.7614671830669
 30
0.0
 11
375.6745130812869
 21
397.5001128676513
 31
0.0
 11
377.1412231907143
 21
397.3066345595698
 31
0.0
 11
378.0686362002688
 21
396.747595439655
 31
0.0
 11
378.4885686675607
 21
396.3000352243252
 31
0.0
 11
378.8632303466874
 21
395.5868240954036
 31
0.0
 11
379.0701836708849
 21
394.7614671830669
 31
0.0
  0
SPLINE
  5
1544
100
AcDbEntity
  8
VHH-025
100
AcDbSpline
210
0.0
220
0.0
230
1.0
 70
     8
 71
     3
 72
    12
 73
     8
 74
     6
 42
0.0000001
 43
0.0000001
 44
0.0000000001
 40
0.0
 40
0.0
 40
0.0
 40
0.0
 40
0.8322508665744818
 40
2.011237394673402
 40
3.686069081067093
 40
5.492156402915678
 40
5.761172455457492
 40
5.761172455457492
 40
5.761172455457492
 40
5.761172455457492
 10
391.3392859823197
 20
401.9625931507261
 30
0.0
 10
391.0794378480055
 20
401.8651850991473
 30
0.0
 10
390.451482617607
 20
401.6297864666599
 30
0.0
 10
389.2684626766578
 20
401.2938427435369
 30
0.0
 10
387.7600096486407
 20
400.9224443885209
 30
0.0
 10
386.5320793171458
 20
400.6857687721206
 30
0.0
 10
385.8508351335357
 20
400.566005473732
 30
0.0
 10
385.7625187521189
 20
400.5504793798663
 30
0.0
 11
391.3392859823197
 21
401.9625931507261
 31
0.0
 11
390.5567384732766
 21
401.6792896014995
 31
0.0
 11
389.4262540076579
 21
401.3446045160335
 31
0.0
 11
387.7994805383587
 21
400.9462714175688
 31
0.0
 11
386.0274385894972
 21
400.5972459949739
 31
0.0
 11
385.7625187521189
 21
400.5504793798663
 31
0.0
  0
LWPOLYLINE
  5
1545
100
AcDbEntity
  8
VHH-025
100
AcDbPolyline
 90
        4
 70
     0
 43
0.0
 10
375.37407
 20
441.158303
 10
376.147015
 20
433.801458
 10
377.996286
 20
411.468052
 10
378.509463
 20
402.939127
  0
ARC
  5
1546
100
AcDbEntity
  8
VHH-025
100
AcDbCircle
 10
373.76617
 20
436.42389
 30
0.0
 40
5.0
100
AcDbArc
 50
360.0
 51
90.0
  0
ARC
  5
1547
100
AcDbEntity
  8
VHH-025
100
AcDbCircle
 10
392.191477
 20
401.867066
 30
0.0
 40
1.2
100
AcDbArc
 50
3.0
 51
90.16706
  0
LINE
  5
1548
100
AcDbEntity
  8
VHH-025
100
AcDbLine
 10
393.389833
 20
401.929869
 30
0.0
 11
391.339286
 21
401.962593
 31
0.0
  0
LINE
  5
1549
100
AcDbEntity
  8
VHH-025
100
AcDbLine
 10
393.76617
 20
425.72389
 30
0.0
 11
393.76617
 21
420.62389
 31
0.0
  0
LINE
  5
154A
100
AcDbEntity
  8
VHH-025
100
AcDbLine
 10
383.76617
 20
425.72389
 30
0.0
 11
383.76617
 21
420.62389
 31
0.0
  0
LINE
  5
154B
100
AcDbEntity
  8
VHH-025
100
AcDbLine
 10
378.76617
 20
436.42389
 30
0.0
 11
378.76617
 21
425.72389
 31
0.0
  0
ARC
  5
154C
100
AcDbEntity
  8
VHH-025
100
AcDbCircle
 10
438.76617
 20
420.62389
 30
0.0
 40
55.0
100
AcDbArc
 50
180.0
 51
198.640516
  0
ARC
  5
154D
100
AcDbEntity
  8
VHH-025
100
AcDbCircle
 10
403.76617
 20
436.42389
 30
0.0
 40
5.0
100
AcDbArc
 50
90.0
 51
180.0
  0
LINE
  5
154E
100
AcDbEntity
  8
VHH-025
100
AcDbLine
 10
398.76617
 20
436.42389
 30
0.0
 11
398.76617
 21
425.72389
 31
0.0
  0
ARC
  5
154F
100
AcDbEntity
  8
VHH-025
100
AcDbCircle
 10
438.76617
 20
420.62389
 30
0.0
 40
45.0
100
AcDbArc
 50
180.0
 51
200.0
  0
LINE
  5
1550
100
AcDbEntity
  8
VHH-025
100
AcDbLine
 10
398.76617
 20
428.72389
 30
0.0
 11
378.76617
 21
428.72389
 31
0.0
  0
LINE
  5
1551
100
AcDbEntity
  8
VHH-025
100
AcDbLine
 10
398.76617
 20
425.72389
 30
0.0
 11
378.76617
 21
425.72389
 31
0.0
  0
LINE
  5
1552
100
AcDbEntity
  8
VHH-025
100
AcDbLine
 10
370.414595
 20
441.42389
 30
0.0
 11
373.76617
 21
441.42389
 31
0.0
  0
ARC
  5
1553
100
AcDbEntity
  8
VHH-025
100
AcDbCircle
 10
340.756429
 20
363.927007
 30
0.0
 40
43.0
100
AcDbArc
 50
63.262545
 51
84.540298
  0
LINE
  5
1554
100
AcDbEntity
  8
VHH-025
100
AcDbLine
 10
357.216815
 20
397.500113
 30
0.0
 11
357.216815
 21
400.158698
 31
0.0
  0
ARC
  5
1555
100
AcDbEntity
  8
VHH-025
100
AcDbCircle
 10
359.216815
 20
400.158698
 30
0.0
 40
2.0
100
AcDbArc
 50
96.777951
 51
180.0
  0
ARC
  5
1556
100
AcDbEntity
  8
VHH-025
100
AcDbCircle
 10
407.46617
 20
439.083419
 30
0.0
 40
0.2
100
AcDbArc
 50
180.0
 51
257.183304
  0
LINE
  5
1557
100
AcDbEntity
  8
VHH-025
100
AcDbLine
 10
434.567732
 20
250.500004
 30
0.0
 11
434.633299
 21
258.050004
 31
0.0
  0
LINE
  5
1558
100
AcDbEntity
  8
VHH-025
100
AcDbLine
 10
430.617741
 20
250.500004
 30
0.0
 11
430.744756
 21
258.050004
 31
0.0
  0
LINE
  5
1559
100
AcDbEntity
  8
VHH-025
100
AcDbLine
 10
441.338722
 20
250.500004
 30
0.0
 11
441.273154
 21
258.050004
 31
0.0
  0
LINE
  5
155A
100
AcDbEntity
  8
VHH-025
100
AcDbLine
 10
448.688707
 20
250.500004
 30
0.0
 11
448.508225
 21
258.050004
 31
0.0
  0
LINE
  5
155B
100
AcDbEntity
  8
VHH-025
100
AcDbLine
 10
445.288712
 20
250.500004
 30
0.0
 11
445.161697
 21
258.050004
 31
0.0
  0
LINE
  5
155C
100
AcDbEntity
  8
VHH-025
100
AcDbLine
 10
453.103708
 20
250.500004
 30
0.0
 11
452.85296
 21
258.050004
 31
0.0
  0
LINE
  5
155D
100
AcDbEntity
  8
VHH-025
100
AcDbLine
 10
451.335719
 20
250.500004
 30
0.0
 11
451.11311
 21
258.050004
 31
0.0
  0
LINE
  5
155E
100
AcDbEntity
  8
VHH-025
100
AcDbLine
 10
453.953227
 20
248.500004
 30
0.0
 11
453.618819
 21
258.076179
 31
0.0
  0
LINE
  5
1573
100
AcDbEntity
  8
VHH-025
100
AcDbLine
 10
436.532823
 20
250.500004
 30
0.0
 11
434.567732
 21
250.500004
 31
0.0
  0
LINE
  5
1574
100
AcDbEntity
  8
VHH-025
100
AcDbLine
 10
429.86512
 20
227.466441
 30
0.0
 11
429.86512
 21
244.184256
 31
0.0
  0
LINE
  5
1575
100
AcDbEntity
  8
VHH-025
100
AcDbLine
 10
432.427871
 20
250.500004
 30
0.0
 11
430.617741
 21
250.500004
 31
0.0
  0
LINE
  5
1576
100
AcDbEntity
  8
VHH-025
100
AcDbLine
 10
429.953227
 20
220.500004
 30
0.0
 11
429.953227
 21
208.000004
 31
0.0
  0
ARC
  5
1577
100
AcDbEntity
  8
VHH-025
100
AcDbCircle
 10
430.953227
 20
203.500004
 30
0.0
 40
1.0
100
AcDbArc
 50
180.000001
 51
270.000001
  0
LINE
  5
1578
100
AcDbEntity
  8
VHH-025
100
AcDbLine
 10
429.953227
 20
206.000004
 30
0.0
 11
429.953227
 21
203.500004
 31
0.0
  0
ARC
  5
1579
100
AcDbEntity
  8
VHH-025
100
AcDbCircle
 10
429.203227
 20
207.000004
 30
0.0
 40
1.25
100
AcDbArc
 50
306.869898
 51
53.130103
  0
ARC
  5
157A
100
AcDbEntity
  8
VHH-025
100
AcDbCircle
 10
430.307289
 20
213.767805
 30
0.0
 40
0.5
100
AcDbArc
 50
195.0
 51
224.917461
  0
LINE
  5
157B
100
AcDbEntity
  8
VHH-025
100
AcDbLine
 10
439.373631
 20
250.500004
 30
0.0
 11
441.338722
 21
250.500004
 31
0.0
  0
LINE
  5
157C
100
AcDbEntity
  8
VHH-025
100
AcDbLine
 10
447.147275
 20
250.500004
 30
0.0
 11
448.688707
 21
250.500004
 31
0.0
  0
LINE
  5
157D
100
AcDbEntity
  8
VHH-025
100
AcDbLine
 10
443.478583
 20
250.500004
 30
0.0
 11
445.288712
 21
250.500004
 31
0.0
  0
ARC
  5
157E
100
AcDbEntity
  8
VHH-025
100
AcDbCircle
 10
447.953227
 20
220.500004
 30
0.0
 40
2.0
100
AcDbArc
 50
90.000001
 51
180.000001
  0
LINE
  5
157F
100
AcDbEntity
  8
VHH-025
100
AcDbLine
 10
445.953227
 20
220.500004
 30
0.0
 11
445.953227
 21
208.000004
 31
0.0
  0
ARC
  5
1580
100
AcDbEntity
  8
VHH-025
100
AcDbCircle
 10
444.953227
 20
203.500004
 30
0.0
 40
1.0
100
AcDbArc
 50
270.000001
 51
0.000001
  0
LINE
  5
1581
100
AcDbEntity
  8
VHH-025
100
AcDbLine
 10
445.953227
 20
206.000004
 30
0.0
 11
445.953227
 21
203.500004
 31
0.0
  0
ARC
  5
1582
100
AcDbEntity
  8
VHH-025
100
AcDbCircle
 10
446.703227
 20
207.000004
 30
0.0
 40
1.25
100
AcDbArc
 50
126.869898
 51
233.130103
  0
LINE
  5
1583
100
AcDbEntity
  8
VHH-025
100
AcDbLine
 10
445.953227
 20
216.019089
 30
0.0
 11
446.233297
 21
216.068398
 31
0.0
  0
LINE
  5
1584
100
AcDbEntity
  8
VHH-025
100
AcDbLine
 10
446.644698
 20
216.604402
 30
0.0
 11
446.217021
 21
221.492772
 31
0.0
  0
ARC
  5
1585
100
AcDbEntity
  8
VHH-025
100
AcDbCircle
 10
446.146601
 20
216.560824
 30
0.0
 40
0.5
100
AcDbArc
 50
279.985089
 51
5.0
  0
LINE
  5
1586
100
AcDbEntity
  8
VHH-025
100
AcDbLine
 10
453.953227
 20
248.500004
 30
0.0
 11
454.825028
 21
223.534904
 31
0.0
  0
ARC
  5
1587
100
AcDbEntity
  8
VHH-025
100
AcDbCircle
 10
453.825637
 20
223.500004
 30
0.0
 40
1.0
100
AcDbArc
 50
270.000001
 51
2.000001
  0
LINE
  5
1588
100
AcDbEntity
  8
VHH-025
100
AcDbLine
 10
452.367265
 20
250.500004
 30
0.0
 11
453.103708
 21
250.500004
 31
0.0
  0
LINE
  5
1589
100
AcDbEntity
  8
VHH-025
100
AcDbLine
 10
450.159839
 20
250.500004
 30
0.0
 11
451.335719
 21
250.500004
 31
0.0
  0
LINE
  5
158A
100
AcDbEntity
  8
VHH-025
100
AcDbLine
 10
445.953227
 20
220.500004
 30
0.0
 11
429.953227
 21
220.500004
 31
0.0
  0
LINE
  5
158B
100
AcDbEntity
  8
VHH-025
100
AcDbLine
 10
445.953227
 20
208.000004
 30
0.0
 11
429.953227
 21
208.000004
 31
0.0
  0
LINE
  5
158C
100
AcDbEntity
  8
VHH-025
100
AcDbLine
 10
445.953227
 20
206.000004
 30
0.0
 11
429.953227
 21
206.000004
 31
0.0
  0
LINE
  5
158D
100
AcDbEntity
  8
VHH-025
100
AcDbLine
 10
444.953227
 20
202.500004
 30
0.0
 11
430.953227
 21
202.500004
 31
0.0
  0
LINE
  5
15C1
100
AcDbEntity
  8
VHH-025
100
AcDbLine
 10
428.322734
 20
271.800004
 30
0.0
 11
428.322734
 21
260.800004
 31
0.0
  0
LINE
  5
15C2
100
AcDbEntity
  8
VHH-025
100
AcDbLine
 10
429.893116
 20
291.221629
 30
0.0
 11
432.259177
 21
277.803034
 31
0.0
  0
ARC
  5
15C3
100
AcDbEntity
  8
VHH-025
100
AcDbCircle
 10
434.986219
 20
347.216529
 30
0.0
 40
60.0
100
AcDbArc
 50
287.747333
 51
295.081486
  0
ARC
  5
15C4
100
AcDbEntity
  8
VHH-025
100
AcDbCircle
 10
430.61099
 20
328.224912
 30
0.0
 40
46.241633
100
AcDbArc
 50
295.720623
 51
310.187569
  0
LINE
  5
15C5
100
AcDbEntity
  8
VHH-025
100
AcDbLine
 10
480.395845
 20
307.898431
 30
0.0
 11
477.925931
 21
308.68293
 31
0.0
  0
ARC
  5
15C6
100
AcDbEntity
  8
VHH-025
100
AcDbCircle
 10
458.495738
 20
314.854387
 30
0.0
 40
24.0
100
AcDbArc
 50
307.665933
 51
339.8871
  0
LINE
  5
15C7
100
AcDbEntity
  8
VHH-025
100
AcDbLine
 10
480.979819
 20
307.40771
 30
0.0
 11
475.024997
 21
304.673056
 31
0.0
  0
ARC
  5
15C8
100
AcDbEntity
  8
VHH-025
100
AcDbCircle
 10
477.11165
 20
300.129282
 30
0.0
 40
5.0
100
AcDbArc
 50
114.666174
 51
148.85969
  0
ARC
  5
15C9
100
AcDbEntity
  8
VHH-025
100
AcDbCircle
 10
474.596368
 20
301.938194
 30
0.0
 40
5.0
100
AcDbArc
 50
114.666174
 51
149.136447
  0
LINE
  5
15CA
100
AcDbEntity
  8
VHH-025
100
AcDbLine
 10
471.748206
 20
305.309202
 30
0.0
 11
473.157824
 21
304.238722
 31
0.0
  0
ARC
  5
15CB
100
AcDbEntity
  8
VHH-025
100
AcDbCircle
 10
477.623212
 20
307.72985
 30
0.0
 40
1.0
100
AcDbArc
 50
72.379007
 51
114.666174
  0
LINE
  5
15CC
100
AcDbEntity
  8
VHH-025
100
AcDbLine
 10
477.205881
 20
308.638605
 30
0.0
 11
472.509715
 21
306.481968
 31
0.0
  0
ARC
  5
15CD
100
AcDbEntity
  8
VHH-025
100
AcDbCircle
 10
480.093126
 20
306.945351
 30
0.0
 40
1.0
100
AcDbArc
 50
339.8871
 51
72.379007
  0
ARC
  5
15CE
100
AcDbEntity
  8
VHH-025
100
AcDbCircle
 10
430.61099
 20
328.224912
 30
0.0
 40
46.241633
100
AcDbArc
 50
310.187569
 51
329.136447
  0
ARC
  5
15CF
100
AcDbEntity
  8
VHH-025
100
AcDbCircle
 10
430.61099
 20
328.224912
 30
0.0
 40
49.329327
100
AcDbArc
 50
303.410632
 51
328.85969
  0
ARC
  5
15D0
100
AcDbEntity
  8
VHH-025
100
AcDbCircle
 10
435.582806
 20
344.540201
 30
0.0
 40
61.5
100
AcDbArc
 50
291.642131
 51
307.663948
  0
ARC
  5
15D1
100
AcDbEntity
  8
VHH-025
100
AcDbCircle
 10
434.092716
 20
266.434446
 30
0.0
 40
14.071985
100
AcDbArc
 50
336.978578
 51
37.324284
  0
LINE
  5
15D2
100
AcDbEntity
  8
VHH-025
100
AcDbLine
 10
444.188583
 20
265.780831
 30
0.0
 11
439.909147
 21
266.230618
 31
0.0
  0
ARC
  5
15D3
100
AcDbEntity
  8
VHH-025
100
AcDbCircle
 10
443.822734
 20
262.300004
 30
0.0
 40
3.5
100
AcDbArc
 50
270.0
 51
336.978578
  0
ARC
  5
15D4
100
AcDbEntity
  8
VHH-025
100
AcDbCircle
 10
443.822734
 20
262.300004
 30
0.0
 40
3.5
100
AcDbArc
 50
336.978578
 51
84.0
  0
ARC
  5
15D5
100
AcDbEntity
  8
VHH-025
100
AcDbCircle
 10
452.869276
 20
258.050004
 30
0.0
 40
0.75
100
AcDbArc
 50
2.0
 51
90.0
  0
ARC
  5
15D6
100
AcDbEntity
  8
VHH-025
100
AcDbCircle
 10
449.259074
 20
277.998276
 30
0.0
 40
5.0
100
AcDbArc
 50
165.277858
 51
217.324284
  0
ARC
  5
15D7
100
AcDbEntity
  8
VHH-025
100
AcDbCircle
 10
474.00933
 20
238.132826
 30
0.0
 40
50.670673
100
AcDbArc
 50
115.720623
 51
126.175476
  0
ARC
  5
15D8
100
AcDbEntity
  8
VHH-025
100
AcDbCircle
 10
430.61099
 20
328.224912
 30
0.0
 40
49.329327
100
AcDbArc
 50
295.720623
 51
303.410632
  0
ARC
  5
15D9
100
AcDbEntity
  8
VHH-025
100
AcDbCircle
 10
474.00933
 20
238.132826
 30
0.0
 40
50.670673
100
AcDbArc
 50
126.175476
 51
136.549309
  0
ARC
  5
15DA
100
AcDbEntity
  8
VHH-025
100
AcDbCircle
 10
474.00933
 20
238.132826
 30
0.0
 40
53.758367
100
AcDbArc
 50
115.720623
 51
134.497865
  0
ARC
  5
15DB
100
AcDbEntity
  8
VHH-025
100
AcDbCircle
 10
472.707165
 20
230.669429
 30
0.0
 40
62.5
100
AcDbArc
 50
108.113958
 51
125.566996
  0
ARC
  5
15DC
100
AcDbEntity
  8
VHH-025
100
AcDbCircle
 10
440.536317
 20
272.197749
 30
0.0
 40
6.0
100
AcDbArc
 50
134.497865
 51
264.0
  0
ARC
  5
15DD
100
AcDbEntity
  8
VHH-025
100
AcDbCircle
 10
440.127985
 20
270.22965
 30
0.0
 40
4.0
100
AcDbArc
 50
136.549309
 51
264.0
  0
LINE
  5
15DE
100
AcDbEntity
  8
VHH-025
100
AcDbLine
 10
442.197781
 20
437.474471
 30
0.0
 11
440.26617
 21
437.42389
 31
0.0
  0
ARC
  5
15DF
100
AcDbEntity
  8
VHH-025
100
AcDbCircle
 10
439.51617
 20
435.688237
 30
0.0
 40
0.75
100
AcDbArc
 50
268.777049
 51
0.0
  0
ARC
  5
1634
100
AcDbEntity
  8
VHH-025
100
AcDbCircle
 10
15.21858
 20
597.5
 30
0.0
 40
3.0
100
AcDbArc
 50
7.018512
 51
172.981488
  0
SPLINE
  5
1635
100
AcDbEntity
  8
VHH-025
100
AcDbSpline
210
0.0
220
0.0
230
-1.0
 70
     8
 71
     3
 72
    16
 73
    12
 74
    10
 42
0.0000001
 43
0.0000001
 44
0.0000000001
 40
0.0
 40
0.0
 40
0.0
 40
0.0
 40
1.162224389485535
 40
2.355902817985682
 40
3.515791744985435
 40
4.373377683802992
 40
5.515721028603126
 40
6.396471174835522
 40
7.295099172860427
 40
7.900392698522047
 40
8.766036361284736
 40
8.766036361284736
 40
8.766036361284736
 40
8.766036361284736
 10
18.19609980652239
 20
593.3660786931405
 30
0.0
 10
18.10306791981224
 20
593.7460297604168
 30
0.0
 10
17.91448636357764
 20
594.5162147592786
 30
0.0
 10
17.14087990625905
 20
595.453535146477
 30
0.0
 10
16.17687625282609
 20
595.9699890903741
 30
0.0
 10
15.12607081704009
 20
596.1533780705184
 30
0.0
 10
14.15095427123205
 20
595.9591604822828
 30
0.0
 10
13.32542101322216
 20
595.4214792795409
 30
0.0
 10
12.7707458528396
 20
594.8389829799995
 30
0.0
 10
12.39411851827871
 20
594.1342862602875
 30
0.0
 10
12.29776393965219
 20
593.6506800206952
 30
0.0
 10
12.24105945830342
 20
593.3660786931405
 30
0.0
 11
18.19609980652239
 21
593.3660786931405
 31
0.0
 11
17.83673966895185
 21
594.4713505253339
 31
0.0
 11
17.08491110095383
 21
595.3985085458507
 31
0.0
 11
16.06455255842411
 21
595.9500615964843
 31
0.0
 11
15.21857963240836
 21
596.0907152523414
 31
0.0
 11
14.09849487477549
 21
595.8663083604514
 31
0.0
 11
13.35224816386289
 21
595.3985085458507
 31
0.0
 11
12.74206616617266
 21
594.7388039085098
 31
0.0
 11
12.45877302555891
 21
594.2038971421579
 31
0.0
 11
12.24105945830342
 21
593.3660786931405
 31
0.0
  0
LINE
  5
1636
100
AcDbEntity
  8
VHH-025
100
AcDbLine
 10
11.305941
 20
585.5
 30
0.0
 11
12.241059
 21
593.366079
 31
0.0
  0
LINE
  5
1637
100
AcDbEntity
  8
VHH-025
100
AcDbLine
 10
18.1961
 20
593.366079
 30
0.0
 11
19.131218
 21
585.5
 31
0.0
  0
LINE
  5
1638
100
AcDbEntity
  8
VHH-025
100
AcDbLine
 10
10.71858
 20
585.5
 30
0.0
 11
12.241059
 21
597.86657
 31
0.0
  0
LINE
  5
1639
100
AcDbEntity
  8
VHH-025
100
AcDbLine
 10
19.71858
 20
585.5
 30
0.0
 11
18.1961
 21
597.86657
 31
0.0
  0
ARC
  5
1643
100
AcDbEntity
  8
VHH-025
100
AcDbCircle
 10
442.915028
 20
319.945818
 30
0.0
 40
160.0
100
AcDbArc
 50
91.222951
 51
102.816696
  0
LINE
  5
1644
100
AcDbEntity
  8
VHH-025
100
AcDbLine
 10
440.26617
 20
478.696635
 30
0.0
 11
422.26617
 21
477.562394
 31
0.0
  0
LINE
  5
1645
100
AcDbEntity
  8
VHH-025
100
AcDbLine
 10
440.26617
 20
477.1206
 30
0.0
 11
422.26617
 21
476.070391
 31
0.0
  0
LINE
  5
1646
100
AcDbEntity
  8
VHH-025
100
AcDbLine
 10
440.26617
 20
474.911496
 30
0.0
 11
422.26617
 21
473.979075
 31
0.0
  0
ARC
  5
1647
100
AcDbEntity
  8
VHH-025
100
AcDbCircle
 10
370.89623
 20
147.1715
 30
0.0
 40
465.913779
100
AcDbArc
 50
97.861411
 51
109.816114
  0
ARC
  5
1648
100
AcDbEntity
  8
VHH-025
100
AcDbCircle
 10
363.398531
 20
90.893171
 30
0.0
 40
516.978761
100
AcDbArc
 50
94.581513
 51
106.918695
  0
SPLINE
  5
1649
100
AcDbEntity
  8
VHH-025
100
AcDbSpline
210
0.0
220
0.0
230
1.0
 70
     8
 71
     3
 72
    11
 73
     7
 74
     5
 42
0.0000001
 43
0.0000001
 44
0.0000000001
 40
0.0
 40
0.0
 40
0.0
 40
0.0
 40
12.81919231105582
 40
61.68837483382378
 40
89.87529633437578
 40
92.55604209165261
 40
92.55604209165261
 40
92.55604209165261
 40
92.55604209165261
 10
362.2597055768237
 20
522.9964126084878
 30
0.0
 10
361.255242756957
 20
527.1507110646065
 30
0.0
 10
356.4215779335388
 20
547.1419799460009
 30
0.0
 10
346.998270968723
 20
575.5865089325935
 30
0.0
 10
338.2065154144368
 20
600.7480545391981
 30
0.0
 10
333.652450359481
 20
609.9761006817149
 30
0.0
 10
333.2569462071114
 20
610.7775232621088
 30
0.0
 11
362.2597055768237
 21
522.9964126084878
 31
0.0
 11
359.1757436855732
 21
535.4391161154089
 31
0.0
 11
344.6620619160003
 21
582.1033426913973
 31
0.0
 11
334.4347804407552
 21
608.3693903062249
 31
0.0
 11
333.2569462071114
 21
610.7775232621088
 31
0.0
  0
SPLINE
  5
164A
100
AcDbEntity
  8
VHH-025
100
AcDbSpline
210
0.0
220
0.0
230
-1.0
 70
     8
 71
     3
 72
    15
 73
    11
 74
     9
 42
0.0000001
 43
0.0000001
 44
0.0000000001
 40
0.0
 40
0.0
 40
0.0
 40
0.0
 40
1.144127971795948
 40
1.570900360916883
 40
2.189031069922019
 40
6.495683490754373
 40
30.7736953262623
 40
53.31174550632219
 40
70.84691920113034
 40
80.20316918957981
 40
80.20316918957981
 40
80.20316918957981
 40
80.20316918957981
 10
359.1757436855732
 20
535.4391161154089
 30
0.0
 10
358.8065750937394
 20
535.5005563471759
 30
0.0
 10
358.2997025336354
 20
535.5849144650062
 30
0.0
 10
357.5448534425333
 20
535.7514785805607
 30
0.0
 10
356.7933230103926
 20
537.5332512751387
 30
0.0
 10
353.7571035663348
 20
546.3927485910998
 30
0.0
 10
349.0745547859448
 20
563.1693916933079
 30
0.0
 10
342.4015632588892
 20
583.4319817349495
 30
0.0
 10
336.5901350800431
 20
598.8826193113354
 30
0.0
 10
333.0290632322251
 20
607.1076602442477
 30
0.0
 10
331.7900705025185
 20
609.9693733331487
 30
0.0
 11
359.1757436855732
 21
535.4391161154089
 31
0.0
 11
358.0497646902695
 21
535.6420942373351
 31
0.0
 11
357.6464685747523
 21
535.7816897792581
 31
0.0
 11
357.3141389094216
 21
536.3028831857364
 31
0.0
 11
355.8415592505862
 21
540.3499517819236
 31
0.0
 11
348.7628166950435
 21
563.5730709203471
 31
0.0
 11
341.7069215148676
 21
584.9781649197966
 31
0.0
 11
335.4586946848194
 21
601.3623639538463
 31
0.0
 11
331.7900705025185
 21
609.9693733331487
 31
0.0
  0
SPLINE
  5
164B
100
AcDbEntity
  8
VHH-025
100
AcDbSpline
210
0.0
220
0.0
230
1.0
 70
     8
 71
     3
 72
    12
 73
     8
 74
     6
 42
0.0000001
 43
0.0000001
 44
0.0000000001
 40
0.0
 40
0.0
 40
0.0
 40
0.0
 40
21.22594818207389
 40
37.44771297309462
 40
64.35211818946531
 40
75.09390495282733
 40
86.13925381656406
 40
86.13925381656406
 40
86.13925381656406
 40
86.13925381656406
 10
349.6523946629222
 20
522.9964103083712
 30
0.0
 10
348.1054624019504
 20
529.9018213185949
 30
0.0
 10
345.3762992663024
 20
542.0846386539587
 30
0.0
 10
339.7975981152957
 20
562.7968916756174
 30
0.0
 10
334.7740802684575
 20
580.0561185667038
 30
0.0
 10
329.0526395349618
 20
595.2483996830931
 30
0.0
 10
326.5144450306163
 20
602.0524639436665
 30
0.0
 10
325.2276653334429
 20
605.5018968905033
 30
0.0
 11
349.6523946629222
 21
522.9964103083712
 31
0.0
 11
344.8454356167149
 21
543.6708878339622
 31
0.0
 11
340.6836153511558
 21
559.3496921573914
 31
0.0
 11
332.8005919868282
 21
585.0733187035094
 31
0.0
 11
329.093627033104
 21
595.1552031355686
 31
0.0
 11
325.2276653334429
 21
605.5018968905033
 31
0.0
  0
LINE
  5
164C
100
AcDbEntity
  8
VHH-025
100
AcDbLine
 10
359.615801
 20
511.69641
 30
0.0
 11
260.953238
 21
511.69641
 31
0.0
  0
LINE
  5
164D
100
AcDbEntity
  8
VHH-025
100
AcDbLine
 10
260.953238
 20
522.99641
 30
0.0
 11
362.259706
 21
522.996413
 31
0.0
  0
LINE
  5
164E
100
AcDbEntity
  8
VHH-025
100
AcDbLine
 10
260.953238
 20
521.99641
 30
0.0
 11
362.49406
 21
521.99641
 31
0.0
  0
ARC
  5
164F
100
AcDbEntity
  8
VHH-025
100
AcDbCircle
 10
349.832803
 20
438.450836
 30
0.0
 40
70.0
100
AcDbArc
 50
82.521694
 51
109.786925
  0
ARC
  5
1650
100
AcDbEntity
  8
VHH-025
100
AcDbCircle
 10
349.832803
 20
438.450836
 30
0.0
 40
68.75
100
AcDbArc
 50
82.521694
 51
108.041117
  0
LWPOLYLINE
  5
1651
100
AcDbEntity
  8
VHH-025
100
AcDbPolyline
 90
        2
 70
     0
 43
0.0
 10
326.059244
 20
503.834835
 10
324.85131
 20
496.250462
  0
ARC
  5
1652
100
AcDbEntity
  8
VHH-025
100
AcDbCircle
 10
329.082943
 20
502.156748
 30
0.0
 40
1.75
100
AcDbArc
 50
108.041117
 51
170.950722
  0
LINE
  5
1653
100
AcDbEntity
  8
VHH-025
100
AcDbLine
 10
326.044671
 20
494.206439
 30
0.0
 11
327.354724
 21
502.431995
 31
0.0
  0
LINE
  5
1654
100
AcDbEntity
  8
VHH-025
100
AcDbLine
 10
324.85131
 20
496.250462
 30
0.0
 11
324.563341
 21
494.442364
 31
0.0
  0
LINE
  5
1655
100
AcDbEntity
  8
VHH-025
100
AcDbLine
 10
324.563341
 20
494.442364
 30
0.0
 11
326.044671
 21
494.206439
 31
0.0
  0
LINE
  5
1656
100
AcDbEntity
  8
VHH-025
100
AcDbLine
 10
260.953238
 20
509.09641
 30
0.0
 11
326.748198
 21
509.09641
 31
0.0
  0
LINE
  5
1657
100
AcDbEntity
  8
VHH-025
100
AcDbLine
 10
326.748198
 20
508.09641
 30
0.0
 11
287.748198
 21
508.09641
 31
0.0
  0
SPLINE
  5
1658
100
AcDbEntity
  8
VHH-025
100
AcDbSpline
210
0.0
220
0.0
230
-1.0
 70
     8
 71
     3
 72
    16
 73
    12
 74
     0
 42
0.0000001
 43
0.0000001
 40
0.1050504003577393
 40
0.1050504003577393
 40
0.1050504003577393
 40
0.1050504003577393
 40
5.497923559405323
 40
11.75381661664571
 40
15.98342477697918
 40
18.30450869996882
 40
21.45476475459092
 40
23.94926090769282
 40
27.59481708481393
 40
29.44434721604997
 40
31.293877347286
 40
31.293877347286
 40
31.293877347286
 40
31.293877347286
 10
260.9532384992307
 20
537.252253968174
 30
0.0
 10
262.7506837127093
 20
537.1692584661686
 30
0.0
 10
266.6327667763525
 20
536.9856935326597
 30
0.0
 10
271.8547655068177
 20
536.0740756659834
 30
0.0
 10
276.0535236040031
 20
535.2922003126195
 30
0.0
 10
279.1265760844089
 20
534.214439308449
 30
0.0
 10
281.2637781930971
 20
532.5312584408302
 30
0.0
 10
283.0442228928223
 20
529.9544913704694
 30
0.0
 10
283.6987096459615
 20
527.2915233000867
 30
0.0
 10
283.6968545859599
 20
524.844912230279
 30
0.0
 10
283.7470722344005
 20
523.6125776321814
 30
0.0
 10
283.7721810586208
 20
522.9964103331322
 30
0.0
  0
SPLINE
  5
1659
100
AcDbEntity
  8
VHH-025
100
AcDbSpline
210
0.0
220
0.0
230
1.0
 70
     8
 71
     3
 72
    10
 73
     6
 74
     4
 42
0.0000001
 43
0.0000001
 44
0.0000000001
 40
0.0
 40
0.0
 40
0.0
 40
0.0
 40
2.205976788938416
 40
5.344893463450999
 40
8.649841197213188
 40
8.649841197213188
 40
8.649841197213188
 40
8.649841197213188
 10
283.7798293839096
 20
521.9964102203812
 30
0.0
 10
283.7725514054328
 20
521.2608490372258
 30
0.0
 10
283.7549174848119
 20
519.4786470759313
 30
0.0
 10
283.4082122463138
 20
516.6077492694252
 30
0.0
 10
282.9370506016791
 20
514.5115216315788
 30
0.0
 10
282.6953998606004
 20
513.4364023642874
 30
0.0
 11
283.7798293839096
 21
521.9964102203812
 31
0.0
 11
283.7245057954623
 21
519.7911272693982
 31
0.0
 11
283.3643550459328
 21
516.6729404040633
 31
0.0
 11
282.6953998606004
 21
513.4364023642874
 31
0.0
  0
SPLINE
  5
165A
100
AcDbEntity
  8
VHH-025
100
AcDbSpline
210
0.0
220
0.0
230
1.0
 70
     8
 71
     3
 72
    10
 73
     6
 74
     4
 42
0.0000001
 43
0.0000001
 44
0.0000000001
 40
0.0
 40
0.0
 40
0.0
 40
0.0
 40
2.115247435386793
 40
5.307478048340049
 40
8.474997652261938
 40
8.474997652261938
 40
8.474997652261938
 40
8.474997652261938
 10
288.9595036631126
 20
521.9964104312575
 30
0.0
 10
288.9755765048092
 20
521.2910621490207
 30
0.0
 10
289.0159057131335
 20
519.5212358574115
 30
0.0
 10
288.702269234847
 20
516.703456000008
 30
0.0
 10
288.2791358064218
 20
514.6262872715698
 30
0.0
 10
288.0683911413161
 20
513.5917383594878
 30
0.0
 11
288.9595036631126
 21
521.9964104312575
 31
0.0
 11
288.9701189063216
 21
519.8811896320212
 31
0.0
 11
288.6540451158125
 21
516.7046453390467
 31
0.0
 11
288.0683911413161
 21
513.5917383594878
 31
0.0
  0
SPLINE
  5
165B
100
AcDbEntity
  8
VHH-025
100
AcDbSpline
210
0.0
220
0.0
230
-1.0
 70
     8
 71
     3
 72
    15
 73
    11
 74
     0
 42
0.0000001
 43
0.0000001
 40
0.1051965741596208
 40
0.1051965741596208
 40
0.1051965741596208
 40
0.1051965741596208
 40
7.669253737098932
 40
15.45437869041568
 40
20.86081248323837
 40
24.06382690725172
 40
29.36972090551076
 40
33.62696527834292
 40
36.74194354924412
 40
38.79269265411739
 40
38.79269265411739
 40
38.79269265411739
 40
38.79269265411739
 10
260.9532384992307
 20
541.8739703144556
 30
0.0
 10
263.4708395707075
 20
541.6870667424054
 30
0.0
 10
268.5790355219087
 20
541.3039352296582
 30
0.0
 10
275.369297066909
 20
540.013289764448
 30
0.0
 10
280.7074613155309
 20
538.6124199580745
 30
0.0
 10
284.67180239972
 20
536.1014708430302
 30
0.0
 10
287.3428297533355
 20
532.6271411282159
 30
0.0
 10
288.6754916812769
 20
528.5457151592245
 30
0.0
 10
288.8276729197059
 20
525.397809896357
 30
0.0
 10
288.9115273034131
 20
523.6788303022513
 30
0.0
 10
288.9448167687314
 20
522.9964102658313
 30
0.0
  0
LINE
  5
165C
100
AcDbEntity
  8
VHH-025
100
AcDbLine
 10
286.748198
 20
509.09641
 30
0.0
 11
287.748198
 21
508.09641
 31
0.0
  0
LWPOLYLINE
  5
165D
100
AcDbEntity
  8
VHH-025
100
AcDbPolyline
 90
        2
 70
     0
 43
0.0
 10
326.387655
 20
504.407828
 10
326.636117
 20
508.09641
  0
LINE
  5
165E
100
AcDbEntity
  8
VHH-025
100
AcDbLine
 10
334.865171
 20
510.29641
 30
0.0
 11
326.748198
 21
510.29641
 31
0.0
  0
LINE
  5
165F
100
AcDbEntity
  8
VHH-025
100
AcDbLine
 10
334.865171
 20
510.89641
 30
0.0
 11
326.748198
 21
510.89641
 31
0.0
  0
LINE
  5
1660
100
AcDbEntity
  8
VHH-025
100
AcDbLine
 10
334.865171
 20
510.29641
 30
0.0
 11
334.865171
 21
510.89641
 31
0.0
  0
LINE
  5
1661
100
AcDbEntity
  8
VHH-025
100
AcDbLine
 10
326.13618
 20
504.317899
 30
0.0
 11
326.059244
 21
503.834835
 31
0.0
  0
LINE
  5
1662
100
AcDbEntity
  8
VHH-025
100
AcDbLine
 10
326.748198
 20
509.09641
 30
0.0
 11
326.748198
 21
508.09641
 31
0.0
  0
LINE
  5
1663
100
AcDbEntity
  8
VHH-025
100
AcDbLine
 10
326.748198
 20
509.09641
 30
0.0
 11
326.748198
 21
511.69641
 31
0.0
  0
LWPOLYLINE
  5
1664
100
AcDbEntity
  8
VHH-025
100
AcDbPolyline
 90
        5
 70
     0
 43
0.0
 10
353.081246
 20
507.124048
 10
353.661601
 20
504.204783
 10
355.153978
 20
496.133827
 10
355.832276
 20
492.256613
 10
355.940095
 20
491.622944
  0
LWPOLYLINE
  5
1665
100
AcDbEntity
  8
VHH-025
100
AcDbPolyline
 90
        3
 70
     0
 43
0.0
 10
362.689167
 20
521.613269
 10
367.805543
 20
497.054637
 10
371.60146
 20
473.42389
  0
LINE
  5
1666
100
AcDbEntity
  8
VHH-025
100
AcDbLine
 10
367.04434
 20
473.42389
 30
0.0
 11
407.26617
 21
473.42389
 31
0.0
  0
ARC
  5
1667
100
AcDbEntity
  8
VHH-025
100
AcDbCircle
 10
407.46617
 20
475.764362
 30
0.0
 40
0.2
100
AcDbArc
 50
102.816696
 51
180.0
  0
SPLINE
  5
1668
100
AcDbEntity
  8
VHH-025
100
AcDbSpline
210
0.0
220
0.0
230
1.0
 70
     8
 71
     3
 72
    13
 73
     9
 74
     7
 42
0.0000001
 43
0.0000001
 44
0.0000000001
 40
0.0
 40
0.0
 40
0.0
 40
0.0
 40
0.5662857353291352
 40
1.132571470271718
 40
1.887239328275265
 40
2.453525063339937
 40
3.017635193568062
 40
3.458422500339405
 40
3.458422500339405
 40
3.458422500339405
 40
3.458422500339405
 10
362.053590189409
 20
513.5917383975647
 30
0.0
 10
362.0234480524413
 20
513.4045803555506
 30
0.0
 10
361.9631637785265
 20
513.0302642716506
 30
0.0
 10
361.6769590772485
 20
512.4577315852037
 30
0.0
 10
361.2080408528547
 20
512.0140429111557
 30
0.0
 10
360.6232476549494
 20
511.7554670906514
 30
0.0
 10
360.0969636768878
 20
511.7082645752544
 30
0.0
 10
359.762507096567
 20
511.7000246586335
 30
0.0
 10
359.6158013633812
 20
511.6964103090277
 30
0.0
 11
362.053590189409
 21
513.5917383975647
 31
0.0
 11
361.9352955023805
 21
513.0379461070279
 31
0.0
 11
361.6820244893806
 21
512.531454915028
 31
0.0
 11
361.134607766382
 21
512.0119758420278
 31
0.0
 11
360.6155555223813
 21
511.785559628528
 31
0.0
 11
360.0563311086752
 21
511.7114766065788
 31
0.0
 11
359.6158013633812
 21
511.6964103090277
 31
0.0
  0
LWPOLYLINE
  5
1669
100
AcDbEntity
  8
VHH-025
100
AcDbPolyline
 90
        2
 70
     0
 43
0.0
 10
352.172253
 20
511.69641
 10
352.830243
 20
508.38663
  0
LINE
  5
166A
100
AcDbEntity
  8
VHH-025
100
AcDbLine
 10
362.49406
 20
521.99641
 30
0.0
 11
362.05359
 21
513.591738
 31
0.0
  0
ARC
  5
166B
100
AcDbEntity
  8
VHH-025
100
AcDbCircle
 10
358.552906
 20
504.880948
 30
0.0
 40
3.0
100
AcDbArc
 50
347.111989
 51
82.521694
  0
ARC
  5
166C
100
AcDbEntity
  8
VHH-025
100
AcDbCircle
 10
358.552906
 20
504.880948
 30
0.0
 40
1.75
100
AcDbArc
 50
347.111989
 51
82.521694
  0
LINE
  5
166D
100
AcDbEntity
  8
VHH-025
100
AcDbLine
 10
349.526645
 20
513.591739
 30
0.0
 11
349.871944
 21
521.99641
 31
0.0
  0
ARC
  5
166E
100
AcDbEntity
  8
VHH-025
100
AcDbCircle
 10
353.759908
 20
556.894754
 30
0.0
 40
1.0
100
AcDbArc
 50
307.031902
 51
30.117917
  0
LINE
  5
166F
100
AcDbEntity
  8
VHH-025
100
AcDbLine
 10
354.362168
 20
556.096453
 30
0.0
 11
353.479406
 21
555.430474
 31
0.0
  0
LINE
  5
1670
100
AcDbEntity
  8
VHH-025
100
AcDbLine
 10
354.624903
 20
557.396535
 30
0.0
 11
350.483595
 21
564.53552
 31
0.0
  0
ARC
  5
1671
100
AcDbEntity
  8
VHH-025
100
AcDbCircle
 10
377.012421
 20
115.327919
 30
0.0
 40
498.102065
100
AcDbArc
 50
95.227028
 51
98.061345
  0
ARC
  5
1672
100
AcDbEntity
  8
VHH-025
100
AcDbCircle
 10
737.124023
 20
-3316.281109
 30
0.0
 40
3948.025825
100
AcDbArc
 50
95.916275
 51
96.252373
  0
LINE
  5
1673
100
AcDbEntity
  8
VHH-025
100
AcDbLine
 10
307.169753
 20
608.706532
 30
0.0
 11
307.152221
 21
608.261178
 31
0.0
  0
SPLINE
  5
1674
100
AcDbEntity
  8
VHH-025
100
AcDbSpline
210
0.0
220
0.0
230
-1.0
 70
     8
 71
     3
 72
    11
 73
     7
 74
     5
 42
0.0000001
 43
0.0000001
 44
0.0000000001
 40
0.0
 40
0.0
 40
0.0
 40
0.0
 40
0.6268006055070936
 40
1.215244760831706
 40
1.618964794629464
 40
1.942964802856018
 40
1.942964802856018
 40
1.942964802856018
 40
1.942964802856018
 10
331.7900705025185
 20
609.9693733331469
 30
0.0
 10
331.6973181551462
 20
610.165808699423
 30
0.0
 10
331.5174893496079
 20
610.5466587618061
 30
0.0
 10
330.9667955074471
 20
610.7386325925927
 30
0.0
 10
330.5302995334018
 20
610.7532904826395
 30
0.0
 10
330.2885658533056
 20
610.7273953489033
 30
0.0
 10
330.1809396923963
 20
610.7158661576495
 30
0.0
 11
331.7900705025185
 21
609.9693733331469
 31
0.0
 11
331.4496850015548
 21
610.495697102131
 31
0.0
 11
330.9069310294344
 21
610.7230396843351
 31
0.0
 11
330.5037407098516
 21
610.7437141101891
 31
0.0
 11
330.1809396923963
 21
610.7158661576495
 31
0.0
  0
SPLINE
  5
1675
100
AcDbEntity
  8
VHH-025
100
AcDbSpline
210
0.0
220
0.0
230
-1.0
 70
     8
 71
     3
 72
    12
 73
     8
 74
     6
 42
0.0000001
 43
0.0000001
 44
0.0000000001
 40
0.0
 40
0.0
 40
0.0
 40
0.0
 40
0.2726448924860046
 40
0.7202654768540803
 40
1.190419341255433
 40
1.81124468762639
 40
1.828039750959963
 40
1.828039750959963
 40
1.828039750959963
 40
1.828039750959963
 10
333.2569462071114
 20
610.7775232621088
 30
0.0
 10
333.2035382956353
 20
610.851272163735
 30
0.0
 10
333.0624468030481
 20
611.0460999021642
 30
0.0
 10
332.7318118202226
 20
611.2869121757764
 30
0.0
 10
332.2224470757956
 20
611.4070348929844
 30
0.0
 10
331.8514401754746
 20
611.3776636675083
 30
0.0
 10
331.6397243848935
 20
611.3591311108145
 30
0.0
 10
331.6341477439054
 20
611.3586429591514
 30
0.0
 11
333.2569462071114
 21
610.7775232621088
 31
0.0
 11
333.0882742421399
 21
610.9917311182471
 31
0.0
 11
332.726431826255
 21
611.2552349201487
 31
0.0
 11
332.2715469753438
 21
611.3740811595635
 31
0.0
 11
331.6508789371873
 21
611.3601062854113
 31
0.0
 11
331.6341477439054
 21
611.3586429591514
 31
0.0
  0
LINE
  5
1676
100
AcDbEntity
  8
VHH-025
100
AcDbLine
 10
442.197781
 20
477.373309
 30
0.0
 11
440.26617
 21
477.42389
 31
0.0
  0
ARC
  5
1677
100
AcDbEntity
  8
VHH-025
100
AcDbCircle
 10
439.51617
 20
479.159543
 30
0.0
 40
0.75
100
AcDbArc
 50
0.0
 51
91.222951
  0
ENDSEC
  0
SECTION
  2
OBJECTS
  0
DICTIONARY
  5
C
100
AcDbDictionary
  3
ACAD_GROUP
350
D
  3
ACAD_MLINESTYLE
350
E
  3
AMACAD
350
975
  0
DICTIONARY
  5
D
102
{ACAD_REACTORS
330
C
102
}
100
AcDbDictionary
  0
DICTIONARY
  5
E
102
{ACAD_REACTORS
330
C
102
}
100
AcDbDictionary
  3
STANDARD
350
1B
  0
DICTIONARY
  5
975
102
{ACAD_REACTORS
330
C
102
}
100
AcDbDictionary
  3
AM_LOADER
350
976
  0
MLINESTYLE
  5
1B
102
{ACAD_REACTORS
330
E
102
}
100
AcDbMlineStyle
  2
STANDARD
 70
     0
  3

 62
     0
 51
90.0
 52
90.0
 71
     2
 49
0.5
 62
   256
  6
BYLAYER
 49
-0.5
 62
   256
  6
BYLAYER
  0
AMLOADER
  5
976
102
{ACAD_REACTORS
330
975
102
}
100
AMLoader
 90
        1
 70
     3
 70
     0
 70
   921
 70
   861
280
     0
  0
ENDSEC
  0
EOF
